Heavy Vegetable - Doesnt Mean Shit Chords & Tabs

 

Doesnt Mean Shit Chords & Tabs

Heavy Vegetable Chords & Tabs

Version: 1 Type: Tab 0 ratings
1 star 2 stars 3 stars 4 stars 5 stars
comments

Doesnt Mean Shit Tab

Heavy Vegetable - "Doesn't Mean Shit"
tabbed by Modern Rocko on 8/28/05

okay, a few notes: I tabbed this from the acoustic version of the song as it's easier
to pick out chords, but it fits with the album version, too.  I'm pretty sure this isn't
a perfect transcription (wouldn't that be nice?), but it sounds really close. I think
the end is a little off, but it still sounds good.  mostly, this tab's just for
reference, as the scale isn't correct and I'm certain the strumming isn't either, but
it gives you an idea, anyway. lyrics are included, listen to the song for timing, please
don't change anything in this document, yadda yadda.

if you've got any suggestions for improvement on this, or find any errors (I'm sure
there are quite a few), I would greatly appreciate it if you'd contact me via the
info at the end of this tab and let me know.  enjoy.

key: U - strum upward
     D - strum downward
     ~ - let ring
     h - hammer-on
     p - pull-off
     / - slide
    () - optional notes, not exactly needed but they fill it out a little more

intro:
   U D  U D  U D  U D  U D U  U D U
e|------------------------------------|
B|-3-3--3-3--2-2--2-2--2/3-3----------|
G|-4-4--4-4--2-2--2-2--2/4-4--4-4-2---|
D|-0-0--0-0--0-0--0-0--0-0-0--0-0-0---|
A|-5-5--5-5--4-4--4-5--4/5-5--2-2-0---|
D|-0-0--0-0--------------0-0----------|

repeat 4x:
      U D  U D   U D    U   U D U D U D
e|----0-0--0-0---------------------------|
B|----5-5--5-5---------------------------|
G|----4-4--4-4---4-4---(9---9-9-9-9-9-9)-|
D|----2-2--2-2---4-4----7---7-7-7-7-7-7--|
A|----2-2--2-2---2-2----7---7-7-7-7-7-7--|
D|---------------2-2----7---7-7-7-7-7-7--|
Rob:  pack  ...  get .. plane
Elea:                   swimming ...
[ Tab from: http://www.guitartabs.cc/tabs/h/heavy_vegetable/doesnt_mean_shit_tab.html ]
      U  U  U D U D U D U        
e|----3--3--3-3-3-3-3-3-3----------------------------------------------|
B|----5--5--5-5-5-5-5-5-5----------------------------------------------|
G|----5--5--5-5-5-5-5-5-5----------------------------------------------|
D|----5--5--5-5-5-5-5-5-5---5--5--5-5-5-5-5-5-5---3--3--3-3-3-3-3-3-3--|
A|----3--3--3-3-3-3-3-3-3---5--5--5-5-5-5-5-5-5---3--3--3-3-3-3-3-3-3--|
D|----3--3--3-3-3-3-3-3-3---5--5--5-5-5-5-5-5-5---3--3--3-3-3-3-3-3-3--|
Rob:  ahh...                ahh...                ahh...
Elea: no no no no no...     no no no no no...     no no no no no...

repeat 4x:
                 U   U D U D U D  U U
e|-----4---------------------------------|
B|-5-5-----------0---0-3-3-3-0-0--0-0----|
G|------1-2-2/4--4---4-4-4-4-4-4--4-4----|
D|---------------2---2-2-0p2-2-2--2-2----|
A|---------------3---3-3-0p3-3-3--3-3----|
D|---------------------------------------|

repeat 4x:
      U D  U D   U D    U   U D U D U D
e|----0-0--0-0---------------------------|
B|----5-5--5-5---------------------------|
G|----4-4--4-4---4-4---(9---9-9-9-9-9-9)-|
D|----2-2--2-2---4-4----7---7-7-7-7-7-7--|
A|----2-2--2-2---2-2----7---7-7-7-7-7-7--|
D|---------------2-2----7---7-7-7-7-7-7--|
Rob:  pack  ...  get .. plane
Elea: sometimes   ...   swimming

      U  U  U D U D U D U        
e|----3--3--3-3-3-3-3-3-3----------------------------------------------|
B|----5--5--5-5-5-5-5-5-5----------------------------------------------|
G|----5--5--5-5-5-5-5-5-5----------------------------------------------|
D|----5--5--5-5-5-5-5-5-5---5--5--5-5-5-5-5-5-5---3--3--3-3-3-3-3-3-3--|
A|----3--3--3-3-3-3-3-3-3---5--5--5-5-5-5-5-5-5---3--3--3-3-3-3-3-3-3--|
D|----3--3--3-3-3-3-3-3-3---5--5--5-5-5-5-5-5-5---3--3--3-3-3-3-3-3-3--|
Rob:  ahh...                ahh...                ahh...
Elea: no no no no no...     no no no no no...     no no no no no...

repeat 4x:
                 U   U D U D U D  U U
e|-----4---------------------------------|
B|-5-5-----------0---0-3-3-3-0-0--0-0----|
G|------1-2-2/4--4---4-4-4-4-4-4--4-4----|
D|---------------2---2-2-0p2-2-2--2-2----|
A|---------------3---3-3-0p3-3-3--3-3----|
D|---------------------------------------|

ending:
   U         U  U  U   D U  D   U D U   D U  D   U D
e|-----------------------------------------------------|
B|-----------------------------------------------------|
G|-----------------------------------------------------|
D|-2~~-------9--9--7h9-9-9-12p9-9-9-7h9-9-9-11p9-9-9---|
A|-2~~-------7--7--7---7-7--7---7-7-7---7-7--7---7-7---|
D|-2~~-------7--7--7---7-7--7---7-7-7---7-7--7---7-7---|
   stood ... middle ...

   U
e|-------|
B|-------|
G|-------|
D|-2~~---|
A|-2~~---|
D|-2~~---|

-------------
find an error?  have a suggestion?  please, by all means, let me know.

email: modernrocko@gmail.com
AIM:   Modern Rocko
Yahoo: modernmusty@yahoo.com
MSN:   modernmusty@hotmail.com
Comments