Heavy Stereo - Cartoon Moon Chords & Tabs

 

Cartoon Moon Chords & Tabs

Heavy Stereo Chords & Tabs

Version: 1 Type: Tab 0 ratings
1 star 2 stars 3 stars 4 stars 5 stars
comments

Cartoon Moon Tab

   
	Cartoon Moon - HEAVY STEREO

	tabbeb by RODI DHJAKU (rodi_d@hotmail.com)

Intro:


   A               B        D    		    A
e-------------------------|-----------------------------| 
B-------------------------|-----------------------------| 
G--2--4b6--4--2--4----2-4-|-2--4b6--4--2--4--2-----2---2| 
D------------------4------|---------------------4----4--| 
A-------------------------|-----------------------------| 
E-------------------------|-----------------------------| 

    A                         B        D				A
e------------------------------------|-----------------------------------------|
B------12b14--12------12----------12-|-----12b14--12------12-------------------|
G--14-------------14------11--14-----|-14-------------14------14--11--14-11-14-|
D------------------------------------|-----------------------------------------|
A------------------------------------|-----------------------------------------|
E------------------------------------|-----------------------------------------|


    A                         B		D				A
e------------------------------------|--------------------12h14-12----------------|
B------12b14--12------12----------12-|-----12b14--12---------------12h14-12-------|
G--14-------------14------11--14-----|-14-------------14--------------------14-14-|
D------------------------------------|--------------------------------------------|
A------------------------------------|--------------------------------------------|
E------------------------------------|--------------------------------------------|

Verse 1:

 A             B
Somedays don't know about you
D              A
I just need to lose my shoes
 A             B
And dream   of a better day
   
 G-----2h4--2- 
 D-2h4--------

D                   A
Believe that I'm on my way

 G-----2h4--2- 
 D-2h4--------

   A                         B        D				A
e------------------------------------|-----------------------------------------|
B------12b14--12------12----------12-|-----12b14--12------12-------------------|
G--14-------------14------11--14-----|-14-------------14------14--11--14-11-14-|
D------------------------------------|-----------------------------------------|
A------------------------------------|-----------------------------------------|
E------------------------------------|-----------------------------------------|


Verse 2
[ Tab from: http://www.guitartabs.cc/tabs/h/heavy_stereo/cartoon_moon_tab.html ]
 A            B
Some nights I come home late
 D              A
We just been to clear some space
 A		 B
I don't know    what I'm coming through

     G-----2h4--2- 
     D-2h4--------

 D
I just know     that I'm here with you
    
    G-----2h4--2- 
    D-2h4--------

    A                         B		D				A
e------------------------------------|--------------------12h14-12-------------------|
B------12b14--12------12----------12-|-----12b14--12---------------12h14-12----12----|
G--14-------------14------11--14-----|-14-------------14--------------------14----14-|
D------------------------------------|-----------------------------------------------|
A------------------------------------|-----------------------------------------------|
E------------------------------------|-----------------------------------------------|

Chorus ;

 A             D      C#
So here's to a happy landing
 B                     F#  	E
Wherever we're falling to   G---2-4-2-
 A     B      C#            D-4-------
May we always remember
 B
These stars
 D
This sky
 		   A
And this Cartoon Moon

   A                         B        D				A
e------------------------------------|-----------------------------------------|
B------12b14--12------12----------12-|-----12b14--12------12-------------------|
G--14-------------14------11--14-----|-14-------------14------14--11--14-11-14-|
D------------------------------------|-----------------------------------------|
A------------------------------------|-----------------------------------------|
E------------------------------------|-----------------------------------------|


             A
This Cartoon Moon
 B
Shine on me
        D             A
Cartoon Moon, shine on you (play the main riff over this verse) 2X



e-------------12----------------------------12-12b14-12----------------|
B-12b14-12-14----12b14-12-12b14r12----12b14-------------12b14----12----|
G----------------------------------14-------------------------14----14-|
D----------------------------------------------------------------------|
A----------------------------------------------------------------------|
E----------------------------------------------------------------------| play this riff over the following verse twice

A         B          D       A
Yeh yeh yeh woo woo woo... yeh yeh yeh
        A             B
Cartoon Moon shine on me
        D             A
Cartoon Moon shine on you 2x 

Outro: D   A






















Comments