Heather Nova - Walking Higher Chords & Tabs

 

Walking Higher Chords & Tabs

Heather Nova Chords & Tabs

Version: 1 Type: Tab 0 ratings
1 star 2 stars 3 stars 4 stars 5 stars
comments

Walking Higher Tab

   
    ________________
   /Heather Nova   / This is about the intoxicating feeling that
  /Walking Higher /  hits you when you're in love.
 /Oyster         /   A lovely song, it goes in 3/4.
/_______________/


1st VERSE:
I carry you with me,
a ghost inside
And in these shattered arms
you're still alive.

I carry you with me,
a holy shrine
and dogs and angels follow
right behind.

- 1st Guitar (plays this once per line):
   Em          Dsus2         Csus2  
||---0-----0-----0-----0---|-------------------------||
||-----0-----0-----3-----3-|---3-----3-----3-----3---||
||-------0-----------2-----|-----5-----5-----5-----5-||
||-------------0-----------|-------5-----------5-----||
||-2-----------------------|-3-----------3-----------||
||-------------------------|-------------------------||

- 2nd Guitar (plays in from second half):
||-------------------------|-------------------------||
||---------0-----------0---|---------0---------------||
||-----0-----------2-------|-----0-------------------||
||-2-----------0-----------|-------------------------||
||-------------------------|-3-----------------------||
||-------------------------|-------------------------||



CHORUS:
And could I be walking higher,
Could I be right beside her?

- 1st Guitar (plays this twice per line):
   Em          Dsus2         Csus2  
||---0-----0-----0-----0---|-------------------------||
||-----0-----0-----3-----3-|---3-----3-----3-----3---||
||-------0-----------2-----|-----5-----5-----5-----5-||
||-------------0-----------|-------5-----------5-----||
||-2-----------------------|-3-----------3-----------||
||-------------------------|-------------------------||

- 2nd Guitar (plays this twice):
   G           D             C
||-3-----------2-----------|-0-----------------------||
||-3-----------3-----------|-1-----------------------||
||-0-----------2-----------|-0-----------------------||
||-0-----------0-----------|-2-----------------------||
||-2-----------------------|-3-----------------------||
||-3-----------------------|-------------------------||



2nd VERSE:
The bones they buried
will feed the trees
but every word you ever spoke
is still in me.
[ Tab from: http://www.guitartabs.cc/tabs/h/heather_nova/walking_higher_tab.html ]
- 1st Guitar (plays this once per line):
   Em          Dsus2         Csus2  
||---0-----0-----0-----0---|-------------------------||
||-----0-----0-----3-----3-|---3-----3-----3-----3---||
||-------0-----------2-----|-----5-----5-----5-----5-||
||-------------0-----------|-------5-----------5-----||
||-2-----------------------|-3-----------3-----------||
||-------------------------|-------------------------||

- 2nd Guitar (plays this once per line):
||-------------------------|-------------------------||
||---------0-----------0---|---------0---------------||
||-----0-----------2-------|-----0-------------------||
||-2-----------0-----------|-------------------------||
||-------------------------|-3-----------------------||
||-------------------------|-------------------------||



CHORUS (same as first chorus)



BRIDGE:
And I will feel for you in the music.
And I will send that river home.
And I will cry for you sometimes
when the night is down.
And I raise my head up to the mountains,
talk to the birds and I fly
'cause the spirit lives on,
when the body dies

- 1st Guitar (plays this once per line, pauses at the last line):
   Em          Dsus2         Csus2  
||---0-----0-----0-----0---|-------------------------||
||-----0-----0-----3-----3-|---3-----3-----3-----3---||
||-------0-----------2-----|-----5-----5-----5-----5-||
||-------------0-----------|-------5-----------5-----||
||-2-----------------------|-3-----------3-----------||
||-------------------------|-------------------------||

- 2nd Guitar (plays this once per line, pauses Em and Dsus2 at the last line):
   Em          Dsus2         Cmaj7
||-0---0-0-0-0-0---0-0-0-0-|-0---0-0-0-0-0---0-0-0-0-||
||-0---0-0-0-0-3---3-3-3-3-|-0---0-0-0-0-0---0-0-0-0-||
||-0---0-0-0-0-2---2-2-2-2-|-0---0-0-0-0-0---0-0-0-0-||
||-2---2-2-2-2-0---0-0-0-0-|-2---2-2-2-2-2---2-2-2-2-||
||-2---2-2-2-2-------------|-3---3-3-3-3-3---3-3-3-3-||
||-0---0-0-0-0-------------|-------------------------||



CHORUS:
And could I be walking higher,
Could I be right beside her?
Could I be walking higher
Could I be right beside her?
Could I be right beside her?
Could I be walking, walking higher,
Could I be walking higher?

-Both Guitars (plays this twice per line till end)
   G           D             C
||-3---3-3-3-3-2---2-2-2-2-|-0---0-0-0-0-0---0-0-0-0-||
||-3---3-3-3-3-3---3-3-3-3-|-1---1-1-1-1-1---1-1-1-1-||
||-0---0-0-0-0-2---2-2-2-2-|-0---0-0-0-0-0---0-0-0-0-||
||-0---0-0-0-0-0---0-0-0-0-|-2---2-2-2-2-2---2-2-2-2-||
||-2---2-2-2-2-------------|-3---3-3-3-3-3---3-3-3-3-||
||-3---3-3-3-3-------------|-------------------------||



02/01/05
Please mail me at Maitinin@gmail.com for comments or corrections!
Comments