Heather Nova - Island Chords & Tabs

 

Island Chords & Tabs

Heather Nova Chords & Tabs

Version: 1 Type: Tab 0 ratings
1 star 2 stars 3 stars 4 stars 5 stars
comments

Island Tab

   
     _____________
    /Heather Nova/ This is one of my favourite Heather Nova songs, partial because
   / Island     /  it's not just another simple love song, and partial because this
  /  Oyster    /   melody and lyrics contains so much frustrations! It's basically
 /____________/    about a girl, which boyfriend cheated on her in some way.

 Guitars:
 1st - Clean Acoustic Western
 2nd - Clean Acoustic Western
 3rd - Clean Electric
 4th - Heavy Crunchy Distorted Electric
 5th - Heavier Crunchy Distorted Electric


INTRO: 4x
1st Guitar
||-----------------|-----------------||
||---0-----0-----0-|h1-1-------0-----||
||-----2-----2-----|-----2-------2---||
||-------2-----2---|-------2-------2-||
||-0---------------|-----------------||
||-----------------|-----------------||
2nd Guitar
||-----------------|-----------------||
||-----------------|-----------------||
||-----------------|-----------------||
||-2---------------|-2-----0-------0-||
||-----------------|---------2-------||
||-----------------|-----------------||

The 3rd guitar plays in after two rounds:
3rd Guitar
 |-----------------|<12>-------------|-----------------|-------<12>------|
 |-----------------|-----------------|-----------------|<12>-------------|
 |-----------------|-----------------|-----------------|-----------------|
 |-----------------|-----------------|-----------------|-----------------|
 |-----------------|-----------------|-----------------|-----------------|
 |-----------------|-----------------|-----------------|-----------------|



1st VERSE: 12x
1st Guitar
||-----------------|-----------------||
||---0-----0-----0-|h1-1-------0-----||
||-----2-----2-----|-----2-------2---||
||-------2-----2---|-------2-------2-||
||-0---------------|-----------------||
||-----------------|-----------------||
2nd Guitar
||-----------------|-----------------||
||-----------------|-----------------||
||-----------------|-----------------||
||-2---------------|-2-----0-------0-||
||-----------------|---------2-------||
||-----------------|-----------------||
3rd Guitar
 |-----------------|-----------------|-----------------|-----------------|
 |-----------------|-----------------|-----------------|-----------------|
 |-----------------|-----------------|-----------------|-----------------|
 |-----------------|-----------------|-----------------|-----------------|
 |-----------------|-----------------|-----------------|-----------------|
 |-----------------|-----------------|-----------------|-----------------|

 |-----------------|<12>-------------|<12>-------------|-----------------|
 |-----------------|--------<12>-----|-----------------|-----------------|
 |-----------------|-----------------|-----------------|-----------------|
 |-----------------|-----------------|-----------------|-----------------|
 |-----------------|-----------------|-----------------|-----------------|
 |-----------------|-----------------|-----------------|-----------------|

 |-----------------|<12>-------------|-----------------|<12>-------------|
 |-----------------|-----------------|-----------------|--------<12>-----|
 |-----------------|-----------------|-----------------|-----------------|
 |-----------------|-----------------|-----------------|-----------------|
 |-----------------|-----------------|-----------------|-----------------|
 |-----------------|-----------------|-----------------|-----------------|

 |-----------------|<12>-------------|<12>-------------|-----------------|
 |-----------------|--------<12>-----|-----------------|-----------------|
 |-----------------|-----------------|-----------------|-----------------|
 |-----------------|-----------------|-----------------|-----------------|
 |-----------------|-----------------|-----------------|-----------------|
 |-----------------|-----------------|-----------------|-----------------|

 |-----------------|-----------------|<12>-------------|-----------------|
 |---0-----0-----0-|-1------<12>-----|-----------------|-----------------|
 |-2---2-----2-----|---2-------------|-----------------|-----------------|
 |-------2-----2---|-----2-----------|-----------------|-----------------|
 |-----------------|-----------------|-----------------|-----------------|
 |-----------------|-----------------|-----------------|-----------------|

 |-----------------|-----------------|<12>-------------|-----------------|
 |-----------------|-----------------|-----------------|-----------------|
 |-----------------|-----------------|-----------------|-----------------|
 |-----------------|-----------------|-----------------|-----------------|
 |-----------------|-----------------|-----------------|-----------------|
 |-----------------|-----------------|-----------------|-----------------|



CHORUS:
 |-----------------|-----------------|-----------------|-----------------|
 |---1-----1-----0-|---0-----0-----1-|---1-----1-----0-|---0-----0-----1-|
 |-----2-----2-----|-----0-----0-----|-----2-----2-----|-----0-----0-----|
 |-------2-----2---|-------0-----0---|-------2-----2---|-------0-----0---|
 |-0---------------|-----------------|-0---------------|-----------------|
 |-----------------|-3---------------|-----------------|-3---------------|
 |
 |-----------------|-----------------|-----------------|-----------------|
 |-----------------|-------------5---|-----------------|-----------------|
 |-----------------|-----------5-----|-----------------|-----------------|
 |-----------------|-----------------|-----------------|-----------------|
 |-----------------|-----------------|-----------------|-----------------|
 |-5---------------|-3---------------|-5---------------|-3---------------|
 |
 |-5---------------|-----------------|-----------------|-----------------|
 |-5---------------|-----------------|-----------------|-----------------|
 |-5---------------|-----------------|-----------------|-----------------|
 |-7---------------|-----------------|-----------------|-----------------|
 |-----------------|-----------------|-----------------|-----------------|
 |-----------------|-----------------|-----------------|-----------------|
 

 |-----------------|-----------------|-----------------|-----------------|
 |---1-----1-----0-|---0-----0-----1-|---1-----1-----1-|---0-----0-----0-|
 |-----2-----2-----|-----0-----0-----|-----2-----2-----|-----0-----0-----|
 |-------2-----2---|-------0-----0---|-------3-----3---|-------0-----0---|
 |-0---------------|-----------------|-----------------|-----------------|
 |-----------------|-3---------------|-1---------------|-3---------------|
 |
 |-----------------|-----------------|-----------------|-----------------|
 |-----------------|-------------5---|-----------------|-----------------|
 |-----------------|-----------5-----|-----------------|-----------------|
 |-----------------|-----------------|-----------------|-----------------|
 |-----------------|-----------------|-----------------|-----------------|
 |-5---------------|-3---------------|-1---------------|-3---------------|
 |
 |-5---------------|-----------------|-----------------|-----------------|
 |-5---------------|-----------------|-----------------|-----------------|
 |-5---------------|-----------------|-----------------|-----------------|
 |-7---------------|-----------------|-----------------|-----------------|
 |-----------------|-----------------|-----------------|-----------------|
 |-----------------|-----------------|-----------------|-----------------|



INTERLUDE:
 |-----------------|-----------------|-----------------|-----------------|
 |---0-----0-----0-|h1-1-------0-----|---0-----0-----0-|h1-1-------0-----|
 |-----2-----2-----|-----2-------2---|-----2-----2-----|-----2-------2---|
 |-------2-----2---|-------2-------2-|-------2-----2---|-------2-------2-|
 |-0---------------|-----------------|-0---------------|-----------------|
 |-----------------|-----------------|-----------------|-----------------|
 |
 |-----------------|-----------------|-----------------|-----------------|
 |-----------------|-----------------|-----------------|-----------------|
 |-----------------|-----------------|-----------------|-----------------|
 |-2---------------|-2-----0-------0-|-2---------------|-2-----0-------0-|
 |-----------------|---------2-------|-----------------|---------2-------|
 |-----------------|-----------------|-----------------|-----------------|
 |
 |-----------------|<12>-------------|-----------------|<12>-------------|
 |-----------------|-----------------|-----------------|-----------------|
 |-----------------|-----------------|-----------------|-----------------|
 |-----------------|-----------------|-----------------|-----------------|
 |-----------------|-----------------|-----------------|-----------------|
 |-----------------|-----------------|-----------------|-----------------|



2nd VERSE: 4x
1st Guitar
||-----------------|-----------------||
||---0-----0-----0-|h1-1-------0-----||
||-----2-----2-----|-----2-------2---||
||-------2-----2---|-------2-------2-||
||-0---------------|-----------------||
||-----------------|-----------------||
2nd Guitar
||-----------------|-----------------||
||-----------------|-----------------||
||-----------------|-----------------||
||-2---------------|-2-----0-------0-||
||-----------------|---------2-------||
||-----------------|-----------------||
3rd Guitar
 |-----------------|<12>-------------|<12>-------------|--------<12>-----|
 |-----------------|--------<12>-----|-----------------|<12>-------------|
 |-----------------|-----------------|-----------------|-----------------|
 |-----------------|-----------------|-----------------|-----------------|
 |-----------------|-----------------|-----------------|-----------------|
 |-----------------|-----------------|-----------------|-----------------|

 |-----------------|-----------------|-----------------|-12--------------|
 |-----------------|-----------------|-----------------|-13--------------|
 |-----------------|-----------------|-----------------|-14--------------|
 |-----------------|-----------------|-----------------|-14--------------|
 |-----------------|-----------------|-----------------|-12--------------|
 |-----------------|-----------------|-----------------|-----------------|


[ Tab from: http://www.guitartabs.cc/tabs/h/heather_nova/island_tab.html ]
CHORUS: 2x
||-----------------|-----------------|-----------------|-----------------|
||---1-----1-----0-|---0-----0-----1-|---1-----1-----0-|---0-----0-----1-|
||-----2-----2-----|-----0-----0-----|-----2-----2-----|-----0-----0-----|
||-------2-----2---|-------0-----0---|-------2-----2---|-------0-----0---|
||-0---------------|-----------------|-0---------------|-----------------|
||-----------------|-3---------------|-----------------|-3---------------|
||
||-----------------|-----------------|-----------------|-----------------|
||-----------------|-------------5---|-----------------|-----------------|
||-----------------|-----------5-----|-----------------|-----------------|
||-----------------|---------7-------|-----------------|-----------------|
||-----------------|-----------------|-----------------|-----------------|
||-5---------------|-3---------------|-5---------------|-3---------------|
||
||-5---------------|-----------------|-----------------|-----------------|
||-5---------------|-----------------|-----------------|-----------------|
||-5---------------|-----------------|-----------------|-----------------|
||-7---------------|-----------------|-----------------|-----------------|
||-----------------|-----------------|-----------------|-----------------|
||-----------------|-----------------|-----------------|-----------------|

 |-----------------|-----------------|-----------------|-----------------||
 |---1-----1-----0-|---0-----0-----1-|---1-----1-----1-|---0-----0-----0-||
 |-----2-----2-----|-----0-----0-----|-----2-----2-----|-----0-----0-----||
 |-------2-----2---|-------0-----0---|-------3-----3---|-------0-----0---||
 |-0---------------|-----------------|-----------------|-----------------||
 |-----------------|-3---------------|-1---------------|-3---------------||
 |
 |-----------------|-----------------|-----------------|-----------------||
 |-----------------|-------------5---|-----------------|-----------------||
 |-----------------|-----------5-----|-----------------|-2/4-------------||
 |-----------------|-----------------|-----------------|-----------------||
 |-----------------|-----------------|-----------------|-----------------||
 |-5---------------|-3---------------|-1---------------|-----------------||
 |
 |-5---------------|-----------------|-----------------|-----------------||
 |-5---------------|-----------------|-----------------|-----------------||
 |-5---------------|-----------------|-----------------|-----------------||
 |-7---------------|-----------------|-----------------|-----------------||
 |-----------------|-----------------|-----------------|-----------------||
 |-----------------|-----------------|-----------------|-----------------||


 |-----------------|-3---------------|
 |---1-----1-------|-----------------|
 |-----2-----2-----|-----------------|
 |-------3-----3---|-----------------|
 |-3---------------|-----------------|
 |-----------------|-----------------|
 |
 |-----------------|-3---------------|
 |---1-----1-------|-----------------|
 |-----2-----2-----|-----------------|
 |-----------------|-----------------|
 |-3---------------|-----------------|
 |-----------------|-----------------|
 |
 |-----------------|-----------------|
 |-----------------|-----------------|
 |-----------------|-----------------|
 |-----------------|-----------------|
 |-----------------|-----------------|
 |-----------------|-----------------|
 


INTERLUDE:
1st Guitar
 |-----------------|-----------------|-----------------|-3---------------|
 |---------1-------|---0-----0-------|---------1-------|-----------------|
 |-2---2-----------|-----0-----------|-----2-----------|-----------------|
 |-2-----2---------|-------0---------|-3-----------3---|-----------------|
 |-----------------|-----------------|-3---------------|-----------------|
 |-----------------|-3---------------|-----------------|-----------------|
2nd Guitar
 |-----------------|-----------------|-----------------|-3---------------|
 |---------1-------|---------0-------|-----------------|-----------------|
 |-----2-----------|-----0-----------|-----------2-----|-----------------|
 |-2-----2---------|-------0---------|-3-----3-----3---|-----------------|
 |-0---------------|-----------------|-3---------------|-----------------|
 |-----------------|-3---------------|-----------------|-----------------|


 |---------0-------|---------3-------|-----------------|-3---------------|
 |-----1-----------|-----0-----------|-----1-----1-----|-----------------|
 |-------2---------|-------0---------|-------2-----2---|-----------------|
 |-----------------|-----------------|-3-------3-------|-----------------|
 |-0---------------|-----------------|-----------------|-----------------|
 |-----------------|-3---------------|-----------------|-----------------|
 |
 |---------0-------|---------3-------|-----------------|-----------------|
 |-----------------|-----0-----------|-----1-----1-----|-----------------|
 |-------2---------|-------0---------|-------2-----2---|-----------------|
 |-2---------------|-----------------|---------3-------|-----------------|
 |-0---------------|-----------------|-3---------------|-----------------|
 |-----------------|-3---------------|-----------------|-----------------|



C-PART
1st & 2nd Guitar
||-0-------0-0-----|-0-0-0-0-0-0-0-0-||
||-1-------1-1-----|-1-1-1-1-1-1-1-1-||
||-2-------2-2-----|-0-0-0-0-0-0-0-0-||
||-2-------2-2-----|-2-2-2-2-2-2-2-2-||
||-0-------0-0-----|-3-3-3-3-3-3-3-3-||
||-----------------|-----------------||
4th Guitar
||-5-------x-5-----|--8-x--8-x--8----8---||
||-5-------x-5-----|--8-x--8-x--8----8---||
||-5-------x-5-----|--9-x--9-x--9----9---||
||-7-------x-7-----|-10-x-10-x-10---10---||
||-7-------x-7-----|-10-x-10-x-10---10---||
||-5-------x-5-----|--8-x--8-x--8----8---||

The 5th Guitar plays in after three rounds:
5th Guitar
 |-----------------|-------------x-x-|
 |-----------------|-------------x-x-|
 |-----------------|-------------x-x-|
 |-----------------|-------------x-x-|
 |-----------------|-------------x-x-|
 |-----------------|-------------x-x-|

 |-----------------|-------------x-x-|-----------------|-------------x-x-|
 |-5---------------|-------------x-x-|-5---------------|-------------x-x-|
 |-5---------------|-------------x-x-|-5---------------|-------------x-x-|
 |-7---------------|-------------x-x-|-7---------------|-------------x-x-|
 |-7---------------|-------------x-x-|-7---------------|-------------x-x-|
 |-5---------------|-------------x-x-|-5---------------|-------------x-x-|

 |-----------------|-------------x-x-|-----------------|-5-5-5-5---5-5-5-|
 |-5---------------|-------------x-x-|-5---------------|-5-5-5-5---5-5-5-|
 |-5---------------|-------------x-x-|-5---------------|-5-5-5-5---5-5-5-|
 |-7---------------|-------------x-x-|-7---------------|-7-7-7-7---7-7-7-|
 |-7---------------|-------------x-x-|-7---------------|-7-7-7-7---7-7-7-|
 |-5---------------|-------------x-x-|-5---------------|-5-5-5-5---5-5-5-|

 |-----------------|-5-----5-----5---|-----------------|-5-----5-----5---|
 |-5---------------|-5-----5-----5---|-5---------------|-5-----5-----5---|
 |-5---------------|-5-----5-----5---|-5---------------|-5-----5-----5---|
 |-7---------------|-7-----7-----7---|-7---------------|-7-----7-----7---|
 |-7---------------|-7-----7-----7---|-7---------------|-7-----7-----7---|
 |-5---------------|-5-----5-----5---|-5---------------|-5-----5-----5---|

 |-----------------|-5-----5-----5---|-----------------|-5-----5-----5---|
 |-5---------------|-5-----5-----5---|-5---------------|-5-----5-----5---|
 |-5---------------|-5-----5-----5---|-5---------------|-5-----5-----5---|
 |-7---------------|-7-----7-----7---|-7---------------|-5-----5-----5---|
 |-7---------------|-7-----7-----7---|-7---------------|-7-----7-----7---|
 |-5---------------|-5-----5-----5---|-5---------------|-5-----5-----5---|

 |-----------------|-----------------|-5---------------|-5-5-5-5---5-5-5-|
 |-5---------------|-----------------|-5---------------|-5-5-5-5---5-5-5-|
 |-5---------------|-5r4---5r4---5r4-|-5---------------|-5-5-5-5---5-5-5-|
 |-5h7-------------|-----------------|-5h7-------------|-7-7-7-7---7-7-7-|
 |-7---------------|-----------------|-7---------------|-7-7-7-7---7-7-7-|
 |-5---------------|-----------------|-5---------------|-5-5-5-5---5-5-5-|

 |-----------------|-----------------|
 |-5---------------|-----------------|
 |-5---------------|-5r4---5r4---5r4-|
 |-5h7-------------|-----------------|
 |-7---------------|-----------------|
 |-5---------------|-----------------|



CHORUS:

Repeat till end
||-----------------|-----------------|-----------------|-----------------|
||---1-----1-----0-|---0-----0-----1-|---1-----1-----0-|---0-----0-----1-|
||-----2-----2-----|-----0-----0-----|-----2-----2-----|-----0-----0-----|
||-------2-----2---|-------0-----0---|-------2-----2---|-------0-----0---|
||-0---------------|-----------------|-0---------------|-----------------|
||-----------------|-3---------------|-----------------|-3---------------|
||
||-----------------|-----------------|-----------------|-----------------|
||-----------------|-------------5---|-----------------|-----------------|
||-----------------|-----------5-----|-----------------|-----------------|
||-----------------|---------7-------|-----------------|-----------------|
||-----------------|-----------------|-----------------|-----------------|
||-5---------------|-3---------------|-5---------------|-3---------------|
||
||-5---------------|-----------------|-----------------|-----------------|
||-5---------------|-----------------|-----------------|-----------------|
||-5---------------|-----------------|-----------------|-----------------|
||-7---------------|-----------------|-----------------|-----------------|
||-----------------|-----------------|-----------------|-----------------|
||-----------------|-----------------|-----------------|-----------------|


 |-----------------|-----------------|-----------------|-----------------||
 |---1-----1-----0-|---0-----0-----1-|---1-----1-----1-|---0-----0-----0-||
 |-----2-----2-----|-----0-----0-----|-----2-----2-----|-----0-----0-----||
 |-------2-----2---|-------0-----0---|-------3-----3---|-------0-----0---||
 |-0---------------|-----------------|-----------------|-----------------||
 |-----------------|-3---------------|-1---------------|-3---------------||
 |
 |-----------------|-----------------|-----------------|-----------------||
 |-----------------|-------------5---|-----------------|-----------------||
 |-----------------|-----------5-----|-----------------|-2/4-------------||
 |-----------------|-----------------|-----------------|-----------------||
 |-----------------|-----------------|-----------------|-----------------||
 |-5---------------|-3---------------|-1---------------|-----------------||
 |
 |-5---------------|-----------------|-----------------|-----------------||
 |-5---------------|-----------------|-----------------|-----------------||
 |-5---------------|-----------------|-----------------|-----------------||
 |-7---------------|-----------------|-----------------|-----------------||
 |-----------------|-----------------|-----------------|-----------------||
 |-----------------|-----------------|-----------------|-----------------||



Verse | Asus2 | Am |

Chorus | Am | G | F | Am |

C-Part | Am | C |

10/ apr/ 05
Please mail me at Maitinin@gmail.com for comments or correction!
Comments