Heartbreakers - Free Fallin Chords & Tabs

 

Free Fallin Chords & Tabs

Heartbreakers Chords & Tabs

Version: 1 Type: Tab 0 ratings
1 star 2 stars 3 stars 4 stars 5 stars
comments

Free Fallin Tab

Band: Tom Petty and the HeartBreakers
Song: Free Fallin
Tab by: Matt Grandon


The Chords stay the same troughout the song.

 First Guitar

e--5--6-----6--5---3----|
B--6--6-----6--6---6----|
G--5--5-----5--5---5----|
D-----------------------|
A-----------------------|
E-----------------------|
[ Tab from: http://www.guitartabs.cc/tabs/h/heartbreakers/free_fallin_tab.html ]
 Secong Guitar
 Verse
e-1-1--1--1-1--1--1-1--1--1--1-1--1-1--1--1-1--1-1--1--1--|
B-1-1--1--1-1--1--1-1--1--1--1-1--1-1--1--1-1--1-1--1--1--|
G-2-2--2--2-2--3--3-3--3--3--3-3--3-2--0--0-0--0-0--0--0--|
D-3-3--3--3-3--3--3-3--3--3--3-3--3-3--3--3-3--3-3--3--3--|
A---------------------------------------------------------|
E---------------------------------------------------------|
  She's a good girl          crazy about Elvis
  Loves      Jesus           and America too

e--------------------------------------------------------------------|
B--------------------------------------------------------------------|
G--------------------------------------------------------------------|
D--------------------------------------------------------------------|
A--3--3-3--3--3-3/8--8-8--8--8--8-3--3-3--3--3-3/10-10-10-10-10-10---|
E--1--1-1--1--1-1/6--6-6--6--6--6-1--1-1--1--1-1/8--8--8---8--8--8---|
 
Comments