Heart - These Dreams Chords & Tabs

 

These Dreams Chords & Tabs

Heart Chords & Tabs

Version: 1 Type: Chords 0 ratings
1 star 2 stars 3 stars 4 stars 5 stars
comments

These Dreams Chords

   
I know this is not correct. I do not have the "ear" that some musicians have. I really like this song so I had to try!
It's just a few of the easier chord formations. All I know is that the song has B's everywhere! The only problem is that I can't figure out all of the correct octaves! Some are too low to do except on the bass guitar.

These Dreams - Heart 

Intro - B(X244XX) C#(X466XX) Eb(XX134X) E(XX245X)      (or on the low E string... 7 9 11 12)

Verse -

B(X244XX) or for fun(7XXX7X) C#(X466XX)          Eb(XX134X)
Spare a little candle,       save some light for me,   

B                 C#             Eb(XX134X)             
 figures up ahead, movin' in the trees,

      B              B
white skin in linen, perfume on my wrist,

        E(XX245X)      Eb(XX134X) C#
and the full moon that hangs     over,

                          E(XX245X) F(XX467X) C# slide to B
these dreams in the mist.


Verse -

B                     C#              Eb
Darkness on the edge, shadows where I stand,

B                          C#            Eb
I search for the time on a watch with no hands,

B                          B
I want to see you clearly, come closer than this,

    E       Eb C# 
But all I remember...

                      B
are the dreams in the mist


Chorus - (I just (tried) to tab this in key with Nancy's sweet voice! Maybe you could just mess around with this... I know I did not do that well however;)  


These dreams go on when I close my eyes,
-----------------------------------------------------------------
12----11-----11-7p0---------0-----0--0----(12)-------------------
-----------------------------------------------------------------
-----------------------------------------------------------------
-----------------------------------------------------------------
-----------------------------------------------------------------





...every second of the night, I live another life. 
-----------------------------------------------------------------
---12-12-14--14h16-----12-----12-7---7---7---7p0-----------------
-----------------------------------------------------------------
-----------------------------------------------------------------
-----------------------------------------------------------------
-----------------------------------------------------------------

[ Tab from: http://www.guitartabs.cc/tabs/h/heart/these_dreams_crd.html ]
These dreams that sleep when it's cold outside
-----------------------------------------------------------------
12----11------11--7p0-----0---------0----0------(12)-------------
-----------------------------------------------------------------
-----------------------------------------------------------------
-----------------------------------------------------------------
-----------------------------------------------------------------




...every moment I'm awake the further I'm away
-----------------------------------------------------------------
---12-12-14---14---14h16-12-----7---7-7-----7p0------------------
-----------------------------------------------------------------
-----------------------------------------------------------------
--------------------------------------------2--------------------
-----------------------------------------------------------------


Verse - 

B                     C#                    Eb  
Is it cloak n dagger, could it be spring or fall,

B                     C#                      Eb
I walk without a cut, through a stained glass wall,


B                      B
Weaker in my eyesight, the candle in my grip,

    E                   Eb C#
and words that have no form 

                    B
are falling from my lips.


These dreams...


There's somethin' out there I can't resist
-----------------------------------------------------------------
12------12--12----12--12-----------------------------------------
-----------------------------------------------------------------
-------------------------------------------9---------------------
-----------------------------------------------------------------
---------------------------------------7-------------------------

I need to hide away from the pain
-----------------------------------------------------------------
-----------------------------------------------------------------
-----------------------------------------------------------------
-------------------8---------------------------------------------
-----------------------------------------------------------------
----------6-------------------5-----7----------------------------

There's somethin' out there I can't resist
-----------------------------------------------------------------
12------12--12----12--12-----------------------------------------
-----------------------------------------------------------------
-----------------------------------------------------------------
-----------------------------------------------------------------
-------------------------------------------12-11-9-7-------------

B                             C#             Eb
The sweetest song is silence, that I've ever heard,

B                       C#                    Eb
Funny how your feet in dreams never touch the earth,

B                          B
In a wood full of princes, freedom is a kiss,

        E                Eb  C#    
But the prince hides his face, 

B
from dreams in the mist


These dreams...

If you would like to tell me the obvious notes I missed, feel free to 
email me: daniel.payne1@comcast.net
I can always use the help:)
Comments