Heart - Mistral Wind Chords & Tabs

 

Mistral Wind Chords & Tabs

Heart Chords & Tabs

Version: 1 Type: Tab 0 ratings
1 star 2 stars 3 stars 4 stars 5 stars
comments

Mistral Wind Tab

   
Artist: Heart
Song: Mistral Wind
Tabbed By: Timn62




Intro

E----------------------------------------------------------------------------------------------------------------
B----------------------------------------------------------------------------------------------------------------
G--------------------------------------------0---------------------------------------1-----------2-0-------0-----
D-------------5------5-----1-----3-------3-----0-----------------5-----5-----1-----3---3---3---------3-0-----0---
A-------3---3-3--- 3-3---3-----1---1---3---3-----3---------3---3-3---3-3---3-----1-------3-----3---------3-----3-
E--4-5----4----- 4-----2-----2-------1---------------1-4-5---4-----4-----2-----2-------------1-------------------


E 0                  0
B 0                  0
G 0   F5             2   Asus2
D 3                  2
A 3                  0
E 1                  x

E----------------------------------------------------------------------------------------
B----------------0------0-----------0-----------0-------------------0-------------0------
G---------0------0------0-0-------2---2-------2---------2-0-----2-----0---0-----0---2----
D-----3-------3-------2-----2---2-----------3-----3-----------2---2-----2-----2----------
A---3---3-----------0---------0-----------3-----------3-----0---------------0------------
E-1---------1---------------------------1-----------1------------------------------------

"Knowing when I took the watch ...
[ Tab from: http://www.guitartabs.cc/tabs/h/heart/mistral_wind_tab.html ]
                                                                                       Ad lib playing this chord/notes
E-------1-------1--------------1--1-1-1-0----------------------------------------------0--0--0---------------------------
B-----0-------0---0------------3--1-3-1-0----------------------------------------------0--0--0---------------------------
G---2-------2-------2-------1--1--3-1-1-2---------------------------------------1------0--0--0---------------------------
D-0-------0-----------0---0-------------2-----------------5-----5-----1-----3-----3----3--3--3---------------------------
A-----------------------2---------------0-(3x)------3---3-3---3-3---3-----1---------3--3--3--3---------------------------
E-----------------------------------------------4-5---4-----4-----2-----2-----2--------1--1--1---------------------------

"Close my eyes said the words ...


E--0----		E---0---
B--0----		B---0---
G--0---- F5		G---2---   Asus2  Play this chord progression through 2x kinda ad lib and strumming
D--3----		D---2---
A--3----		A---0---
E--1----		E---x---

"Whisper waves cloud the glass ...


E--1---		E--1---			E--1---		E--0---		E------------------------
B--3---		B--3---			B--1---		B--0---		B------------------------
G--2--- Dm	G--1--- Dm7 dim5 	G--1--- Fm	G--2--- Asus2	G--------------------2---
D--0---		D--0---			D--0---		D--2---		D------------5---3---2---
A------		A--3---			A------		A--0---		A------3---3-----2---0---
E------		E------			E------		E------		E--4-5---4-----0---0-----

"And in my ear, it blew it's name ...					Play 2x


Rockin' Part

E------------0------------------0---------------------------0---
B------------0------------------0---------------------------0---
G------------2--------2-0-0-----1------------5--------------1---
D--2--4--4---3--------3-3-3-4-4-2----2--4-4--5---7-5-5-4-4--2---
A--0--2--2---3--------3-3-3-3-3-2----0--2-2--3---3-3-3-3-3--2---
E------------1------------------0---------------------------0---

   A  B  B  Fmaj(?)	        E    A  B B  C		    E	Repeat


Goes back to the   F5  Asus2 (2x) Dm Dm7 dim5  Fm  Asus2  "Rockin' Part" (plays 5-6 times)

I'm sure you have it by now!!!

Thanks, this has been fun! This was my first time so probably the written chords are wrong.  The tab isn't though! :)
Comments