Heart - Crazy On You Chords & Tabs

 

Crazy On You Chords & Tabs

Heart Chords & Tabs

Version: 7 Type: Tab

Crazy On You Tab

Standard tuning
/ - Slide up
\ - Slide down
p - Pull off
h - Hammer on
r - Ring out
* - Harmonic


|------------------|--------------------------------|-------------------------|
|-------3--1p0-----|--------3p1-0-----1-------------|-------------------------|
|--2/4-----2p0--0--|---------------2-----2----------|--0-------4-----5--------|
|------------------|---------------------------2/4--|----------4-----5--------|
|------------------|--0--0------------0-----0-------|-----0--0-----0----------|
|------------------|--------------------------------|--------------------5\1--|

|--------------------------------|----------------------|-----------------------------|
|--------3p1-0-----1-------------|----------------------|-------------------0--3p1-0--|
|---------------2-----2----------|--0-----------0-------|--3/4----2-----0h1----0------|
|---------------------------2/4--|------------2---------|----------------------0------|
|--0--0------------0-----0-------|-----0--0-3-----2-----|--4/5----4-----0h2----2------|
|--------------------------------|-------------------3--|------0-----0---------3------|

|-------------------------------|-------------------------|---------------------------|
|--------3p1-0-----1------------|-------------------------|--------3p1-0-----1--------|
|---------------2-----2---------|--0-------4-----5--------|---------------2-----2-----|
|---------------------------2/4-|----------4-----5--------|---------------------------|
|--0--0------------0-----0------|-----0--0-----0----------|--0--0------------0-----0--|
|-------------------------------|--------------------5\1--|---------------------------|
[ Tab from: http://www.guitartabs.cc/tabs/h/heart/crazy_on_you_tab_ver_7.html ]
|---------------------------|--------------5----------|--------------------------------|
|------------------------3--|--------5p3------0--12*--|--------3p1-0-----1-------------|
|-------0-------4--5--------|-----4------4----0--12*--|---------------2-----2----------|
|--2/4----------4-----------|-----------------0--12*--|---------------------------2/4--|
|----------0--0-------0-----|--0-----0-----0----------|--0--0------------0-----0-------|
|---------------------------|-------------------------|--------------------------------|

|----------------------|--------------------------------|-----------------------|
|----------------------|--------3p1-0-----1-------------|-----------------------|
|--0-------4-----5-----|---------------2-----2----------|--0-----------0--------|
|----------4-----5-----|---------------------------2/4--|------------4-------2--|
|-----0--0----0--------|--0--0------------0-----0-------|-----0----0-----0h3----|
|-------------------5--|--------------------------------|--------0--------------|

|------------------------------|--------0-----------------|---------------------------|
|--------3p1-0-----1-----------|-----------3--1--0--------|--------3p1-0----1---------|
|---------------2-----2-----0--|-----0--------------2--0--|-------------------2-------|
|------------------------------|-----------------------0--|------------------------0--|
|--0--0------------0-----0-----|--------------------------|---------------------------|
|------------------------------|--3-----------------------|--2--2--------2------2--0--|

|-----------0--------|--1r--|--0h1h0------0-------------|
|--------0-----0-----|------|--------0h1----3-1-0-------|
|--1--1-----1-----1--|------|---------------------1-----|
|--------2-----2-----|--0r--|---------------------------|
|-----2-----------2--|------|---------------------------|
|--------------------|------|-----------------------0r--|
        E Major    PAUSE  


It took me a while to learn this song, but this is how I play it...