Headstones - Tiny Teddy Chords & Tabs

 

Tiny Teddy Chords & Tabs

Headstones Chords & Tabs

Version: 1 Type: Tab 0 ratings
1 star 2 stars 3 stars 4 stars 5 stars
comments

Tiny Teddy Tab

   
Tiny Teddy- Headstones
CD: Oracle of Hi-Fi
Tabber: Mitchell (Mitchell_J@hotmail.com)
Tuning: Down a half step (eb Bb Gb Db Ab eb)

This is the first Headstones tune I know for sure is in E flat.
The Tiny Teddy tab should be very accurate, one of the best off Oracle!

Intro:
eb ---------------------------------------------------------
Bb ---------------------------------------------------------
Gb ---------------------------------------------------------
Db -9-9--9-9-9-9--4-4--4-4-4-4--2-2--2-2-2-2--9-9--9-9-9-9--
Ab -9-9--9-9-9-9--4-4--4-4-4-4--2-2--2-2-2-2--9-9--9-9-9-9--
Eb -7-7--7-7-7-7--2-2--2-2-2-2--0-0--0-0-0-0--7-7--7-7-7-7--

After that:
eb ---------------------------------------------------------------------
Bb ---------------------------------------------------------------------
Gb ---------------------------------------------------------------------
Db -9-9-9-9-9-9-9-9--4-4-4-4-4-4-4-4--2-2-2-2-2-2-2-2--9-9-9-9-9-9-9-9--
Ab -9-9-9-9-9-9-9-9--4-4-4-4-4-4-4-4--2-2-2-2-2-2-2-2--9-9-9-9-9-9-9-9--
Eb -7-7-7-7-7-7-7-7--2-2-2-2-2-2-2-2--0-0-0-0-0-0-0-0--7-7-7-7-7-7-7-7--

Pre-chorus:
eb ---------------------------------------------------------------
Bb ---------------------------------------------------------------
Gb ---------------------------------------------------------------
Db -7-7-7-7-7-7-7-7-7--9-9-7-9--5-5-5-5-5-5-5-5--4-4-4-4-4-4-4-4--
Ab -7-7-7-7-7-7-7-7-7--9-9-7-9--5-5-5-5-5-5-5-5--4-4-4-4-4-4-4-4--
Eb -5-5-5-5-5-5-5-5-5--7-7-7-7--3-3-3-3-3-3-3-3--2-2-2-2-2-2-2-2--
[ Tab from: http://www.guitartabs.cc/tabs/h/headstones/tiny_teddy_tab.html ]
Chorus:
eb -----------------------------------------------------------------------------
Bb -----------------------------------------------------------------------------
Gb ------------------11-11-11-11-11-11-11-11--9-9-9-9-9-9-9-9-------------------
Db -9-9-9-9-9-9-9-9--11-11-11-11-11-11-11-11--9-9-9-9-9-9-9-9--9-9-9-9-9-9-9-9--
Ab -9-9-9-9-9-9-9-9--9--9--9--9--9--9--9--9---7-7-7-7-7-7-7-7--9-9-9-9-9-9-9-9--
Eb -7-7-7-7-7-7-7-7--------------------------------------------7-7-7-7-7-7-7-7--

Post-chorus:
eb -----------------------------------------------------------------
Bb -----------------------------------------------------------------
Gb -9-9--9-9-9-9-------7-7-7-7-7--6-6-6-6-6-6-6-6-------------------
Db -9-9--9-9-9-9--7-7--7-7-7-7-7--6-6-6-6-6-6-6-6--4-4-4-4-4-4-4-4--
Ab -7-7--7-7-7-7--7-7--5-5-5-5-5--4-4-4-4-4-4-4-4--4-4-4-4-4-4-4-4--
Eb ---------------5-5------------------------------2-2-2-2-2-2-2-2--

Verse 2 start:
eb -2-2--2-2-2-2---2-2--2-2-2-2---0-0--0-0-0-0---2-2--2-2-2-2--
Bb -4-4--4-4-4-4---2-2--2-2-2-2---0-0--0-0-0-0---4-4--4-4-4-4--
Gb -4-4--4-4-4-4---3-3--3-3-3-3---1-1--1-1-1-1---4-4--4-4-4-4--
Db -4-4--4-4-4-4---4-4--4-4-4-4---2-2--2-2-2-2---4-4--4-4-4-4--
Ab -------------------------------2-2--2-2-2-2-----------------
Eb ------------------------------------------------------------

Instrumental: the first 6 chords are played are played 8 times
eb -------------------|-------------------------------
Bb -------------------|-------------------------------
Gb -9-----9-----9-----|-------------------------------
Db -9--9--9--9--9--9--|-7-7-7-7-7-7-7-7--9-9--7--9-9--
Ab -7--9--7--9--7--9--|-7-7-7-7-7-7-7-7--9-9--7--9-9--
Eb ----7-----7-----7--|-5-5-5-5-5-5-5-5--7-7--5--7-7--

Chords: D#5  F5 F#5 G#5 A#5  C5 C#5 D#5  F5  Bb  F   eb
eb	 x   x   x   x   x   x   x   x   x   2   2   0
Bb	 x   x   x   x   x   x   x   x   x   4   2   0
Gb	 x   x   x   x   x   6   7   9   11  4   3   1
Db	 2   4   5   7   9   6   7   9   11  4   4   2
Ab	 2   4   5   7   9   4   5   7   9   x   x   2
Eb	 0   2   3   5   7   x   x   x   x   x   x   x

Tab originally from http://diehardtabs.tripod.com
Comments