Head Automatica - Beating Heart Baby Chords & Tabs

 

Beating Heart Baby Chords & Tabs

Head Automatica Chords & Tabs

Version: 2 Type: Tab 0 ratings
1 star 2 stars 3 stars 4 stars 5 stars
comments

Beating Heart Baby Tab

Intro is played on a keyboard but this sounds kinda close
---20--20--18--20------------------------------------------------|
---18--18--16--18------------------------------------------------|
---17--20--15--17------------------------------------------------|
-----------------------------------------------------------------|
-----------------------------------------------------------------|
-----------------------------------------------------------------|

Verse 2x
----------------------------------------------------------------------------|
----------------------------------------------------------------------------|
---5--5---5--5--5555---8--8---8--8--8-88---5--5---5--5--5555---8--8---8--8--|
---5--5---5--5--5555---8--8---8--8--8-88---5--5---5--5--5555---8--8---8--8--|
---3--3---3--3--3333---6--6---6--6--6-66---3--3---3--3--3333---6--6---6--6--|
----------------------------------------------------------------------------|

Chorus 2x
--------------------------------------------|
--------------------------------------------|
-----------5-------3------------------------|
---6-------5-(16x)-3-(16x)-6------6---------|
---6-(16x)-3-------1-------6-(8x)-6-(8x)----|
---4-----------------------4------3---------|
[ Tab from: http://www.guitartabs.cc/tabs/h/head_automatica/beating_heart_baby_tab_ver_2.html ]
Verse 2x
----------------------------------------------------------------------------|
----------------------------------------------------------------------------|
---5--5---5--5--5555---8--8---8--8--8-88---5--5---5--5--5555---8--8---8--8--|
---5--5---5--5--5555---8--8---8--8--8-88---5--5---5--5--5555---8--8---8--8--|
---3--3---3--3--3333---6--6---6--6--6-66---3--3---3--3--3333---6--6---6--6--|
----------------------------------------------------------------------------|

Chorus 2x
---------------------------------------------|
---------------------------------------------|
-----------5-------3-------------------------|
---6-------5-(16x)-3-(16x)-6------6----------|
---6-(16x)-3-------1-------6-(8x)-6-(8x)-----|
---4-----------------------4------3----------|

Bridge 2x
---------------------------------------------|
---------------------------------------------|
---8---7---8---7-----------------------------|
---8---6---8---6-----------------------------|
---6---5---6---x-----------------------------|
---------------7-----------------------------|

Verse after bridge 2x
---------------------------------------------|
---------------------------------------------|
---5-5-xxx-x-xxx-xxx--8-8-xxx-x-xxx-xxx------|
---5-5-xxx-x-xxx-xxx--8-8-xxx-x-xxx-xxx------|
---3-3-xxx-x-xxx-xxx--6-6-xxx-x-xxx-xxx------|
---------------------------------------------|

Chorus
---------------------------------------------|
---------------------------------------------|
-----------5-------3-------------------------|
---6-------5-(16x)-3-(16x)-6------6----------|
---6-(16x)-3-------1-------6-(8x)-6-(8x)-----|
---4-----------------------4------3----------|

Chorus, key change
---------------------------------------------|
---------------------------------------------|
---6-------9-------4-------------------------|
---6-------9-(16x)-4-(16x)-7------7----------|
---4-(16x)-7-------2-------7-(8x)-7-(8x)-----|
---------------------------5------4----------|
Comments