Head Automatica - Beating Heart Baby Chords & Tabs

 

Beating Heart Baby Chords & Tabs

Head Automatica Chords & Tabs

Version: 1 Type: Tab 0 ratings
1 star 2 stars 3 stars 4 stars 5 stars
comments

Beating Heart Baby Tab

Beating Heart Baby by Head Automatica
From new their album "Decadence"

Head Automatica Is Daryl Palumbo's side project with Dan "the Automator"
I saw them play with The Cure and they were great live. Even if you aren't a Glassjaw 
(like me) then you can still appreciate this "electric c*ck rock"

Sounds pretty cool.


| (keyboard intro)       |
|                        |
| verse x2     \_____X2  |
| chorus x2    /         |
|                        |
| bridge x2              |
| after bridge verse x2  |
|                        |
| chorus x3              |

Just follow as written below.....


Verse-
------------------------------------------|
------------------------------------------|
---4--4---4--4--4444---7--7---7--7--7-77--|
---4--4---4--4--4444---7--7---7--7--7-77--|
---4--4---4--4--4444---5--5---5--5--5-55--|
------------------------------------------|

------------------------------------------|
------------------------------------------|
--4--4---4--4--4444---7--7---7--7---------|
--4--4---4--4--4444---7--7---7--7---------|
--4--4---4--4--4444---5--5---5--5---------|
------------------------------------------|     (PLAY VERSE X2)


Chorus-
---------------------------------------------|
---------------------------------------------|
-----------4-------2-------------------------|
---5-------4-(16x)-2-(16x)-4------4----------| 2x
---5-(16x)-2-------0-------4-(8x)-4-(8x)-----|
---3-----------------------2------1----------|


Verse-
------------------------------------------|
------------------------------------------|
---4--4---4--4--4444---7--7---7--7--7-77--|
---4--4---4--4--4444---7--7---7--7--7-77--|
---4--4---4--4--4444---5--5---5--5--5-55--|
------------------------------------------|

------------------------------------------|
------------------------------------------|
--4--4---4--4--4444---7--7---7--7---------|
--4--4---4--4--4444---7--7---7--7---------|
--4--4---4--4--4444---5--5---5--5---------|
------------------------------------------|     (PLAY VERSE X2)


Chorus-
---------------------------------------------|
---------------------------------------------|
-----------4-------2-------------------------|
---5-------4-(16x)-2-(16x)-4------4----------| 2x
---5-(16x)-2-------0-------4-(8x)-4-(8x)-----|
---3-----------------------2------1----------|

[ Tab from: http://www.guitartabs.cc/tabs/h/head_automatica/beating_heart_baby_tab.html ]
Bridge-
-----------------------------------------------|
-----------------------------------------------|
---7---7---7---4-------------------------------|
---7---6---7---6-------------------------------| 2x
---5---4---5---4-------------------------------|
-----------------------------------------------|


Verse after bridge
------------------------------------------------|
------------------------------------------------|
---4-4-xxx-x-xxx-xxx--7-7-xxx-x-xxx-xxx---------|
---4-4-xxx-x-xxx-xxx--7-7-xxx-x-xxx-xxx---------| 2x
---4-4-xxx-x-xxx-xxx--5-5-xxx-x-xxx-xxx---------|
------------------------------------------------|


Chorus-
---------------------------------------------|
---------------------------------------------|
-----------4-------2-------------------------|
---5-------4-(16x)-2-(16x)-4------4----------| 3x
---5-(16x)-2-------0-------4-(8x)-4-(8x)-----|
---3-----------------------2------1----------|


:::LYRICS:::

beating hearts baby
baby is this love for real?
beating hearts baby
let me in your arms to feel
beating hearts baby
the beating of your heart, baby
beating hearts baby
the beating of your heart, baby


you, you want nothing to do with me
you, you want nothing to do with me
i, i don't know what to do with you
cause you don't know what you do with me


baby is this love for real
let me in your arms to feel
the beating of your heart, baby
the beating of your heart, baby
beating hearts baby
baby is this love for real?
beating hearts baby
let me in your arms to feel
beating hearts baby
the beating of your heart, baby
beating hearts baby
the beating of your heart, baby


you, you really got your hold on me
you, you really got your hold on me
you, you gotta get away from me
cause you, you want nothing to do with me

baby is this love for real
let me in your amrs to feel
the beating of your heart, baby
the beating of your heart, baby
beating hearts baby
baby is this love for real?
beating hearts baby
let me in your arms to feel
beating hearts baby
your beating heart, baby
beating hearts baby
the beating of your heart, baby


in spite of you of you
even out of view
still out of all of you
i do, yeah
in spite of you
even out of view
still out of all of you
i do, yeah


you, you want nothing to do with me
you, you want
baby is this love for real
let me in your amrs to feel
the beating of your heart, baby
the beating of your heart, baby


beating hearts baby
baby is this love for real?
beating hearts baby
let me in your arms to feel
beating hearts baby
your beating heart, baby
beating hearts baby
the beating of your heart, baby


beating hearts baby
baby is this love for real?
beating hearts baby
let me in your arms to feel
beating hearts baby
your beating heart, baby
beating hearts baby
the beating of your heart, baby


(tabbed by Skillmcrobot)
Comments