He Is Legend - Dinner With A Gypsy Chords & Tabs

 

Dinner With A Gypsy Chords & Tabs

He Is Legend Chords & Tabs

Version: 1 Type: Tab 0 ratings
1 star 2 stars 3 stars 4 stars 5 stars
comments

Dinner With A Gypsy Tab

hey, i could never find a tab for dinner with a gypsy, and it's such a great song i had
to learn it. all i've been able to figure out so far is the intro, but if you can figure
out more or have any questions/comments, my email is matterghetto@yahoo.com.

                   .::*HE IS LEGEND*::.
                   
                    Dinner with a Gypsy
                 
            p=pulloff
            h=hammer on
            v=up pick

                 standard tuning EADgbe

chord progression throughout intro:
|-----------------------|
|-7----7----7----7------|
|-7----7----7----7------| 
|-7----7----6----5------|
|-V----v----v----v------|
|-----------------------|
[ Tab from: http://www.guitartabs.cc/tabs/h/he_is_legend/dinner_with_a_gypsy_tab.html ]
second guitar(lead) plays this:
|----------------------------------------------------------------------------|
|-5s7--5-7-8-7-5-------------------------------3~----------------------------|
|----------------7h9-6--6-7-6-----6h7s9--6h7p6----2--------2-----------------|
|-----------------------------6-7------------------4-2--2-4--4-2-4--4-2------|
|-----------------------------------------------------------------------4-2--|
|----------------------------------------------------------------------------|
                                   
|--------------------------------|
|----------------5---------------|
|-4s7-7-4--4s7-7---6-7--6-7------|
|---------------------------4-7--|
|--------------------------------|
|--------------------------------|

intro verse:
|-----------------------------------------|
|-------7-7-------------------------------|
|-6h7p6-----9--6-7-6--6-7-6-7-6---4--4-4--|
|-------------------------------7---------|
|-----------------------------------------|
|-----------------------------------------|

|-----------------------------------------|
|-------7-7-------------------------------|
|-6h7p6-----9--6-7-6-7s9-9-9-9-9--7-6-7---|
|-----------------------------------------|
|-----------------------------------------|
|-----------------------------------------|

do intro verse 4x.
Comments