Hazen Street - Fool The World Chords & Tabs

 

Fool The World Chords & Tabs

Hazen Street Chords & Tabs

Version: 1 Type: Tab 0 ratings
1 star 2 stars 3 stars 4 stars 5 stars
comments

Fool The World Tab

Intro
|-------------|
|-------------|
|-------------| x8
|-----0---0-2-|
|---0---0-----|
|-0-----------|

Verse 1
|-------------|
|-------------|
|-------------| x8
|-----0---0-2-|
|---0---0-----|
|-------------|
p.m.* * * * *

Verse 2
|---------------------------------|
|---------------------------------|
|---------------------------------| 
|-4-4-4-4-4-4-4-4-7-7-7-7-7-7-7-7-|
|-4-4-4-4-4-4-4-4-7-7-7-7-7-7-7-7-|
|-2-2-2-2-2-2-2-2-5-5-5-5-5-5-5-5-|

|-------------|
|-------------|
|-------------| x2
|-----0---0-2-|
|---0---0-----|
|-0-----------|

|---------------------------------|
|---------------------------------|
|---------------------------------|
|-4-4-4-4-4-4-4-4-7-7-7-7-7-7-7-7-|
|-4-4-4-4-4-4-4-4-7-7-7-7-7-7-7-7-|
|-2-2-2-2-2-2-2-2-5-5-5-5-5-5-5-5-|

Chorus
|------------------------------|
|------------------------------|
|------------------------------| x3
|-2--2--7-7-7-7--4--4--7-7-7-7-|
|-2--2--7-7-7-7--4--4--7-7-7-7-|
|-0--0--5-5-5-5--2--2--5-5-5-5-|

|-------------------|
|-------------------|
|-------------------|
|-2--2--7-7-7-7--4~-|
|-2--2--7-7-7-7--4~-|
|-0--0--5-5-5-5--2~-|
[ Tab from: http://www.guitartabs.cc/tabs/h/hazen_street/fool_the_world_tab.html ]
Bridge
|-------------------------------------------------------------------|
|-------------------------------------------------------------------|
|-------------------------------------------------------------------|
|---4-4-4-4-4-4-4-4-7-7-7-7-7-7-7-7-4-4-4-4-4-4-4-4-2-2-2-2-2-2-2-2-|
|---4-4-4-4-4-4-4-4-7-7-7-7-7-7-7-7-4-4-4-4-4-4-4-4-2-2-2-2-2-2-2-2-|
|---2-2-2-2-2-2-2-2-5-5-5-5-5-5-5-5-2-2-2-2-2-2-2-2-0-0-0-0-0-0-0-0-|
p.m.* * * * * * * * * * * * * * * * * * * * * * * * * * * * * * * *

|------------------------------------------------------|
|------------------------------------------------------|
|---------------------------------------------------4~-|
|---4-4-4-4-4-4-4-4-7-7-7-7-7-7-7-7-4-4-4-4-4-4-4-4-4~-|
|---4-4-4-4-4-4-4-4-7-7-7-7-7-7-7-7-4-4-4-4-4-4-4-4-2~-|
|---2-2-2-2-2-2-2-2-5-5-5-5-5-5-5-5-2-2-2-2-2-2-2-2----|
p.m.* *   * * *   * * *   * * *   * * *   * * *   *

|----------------------------------------------------|
|-5-7-5-9-9-9-7-5-7-5-7-9-7-5-5--9-9-9-7-5-7-9-7-5-5-|
|----------------------------------------------------|
|----------------------------------------------------|
|----------------------------------------------------|
|----------------------------------------------------|

|-----------------------------------------12------12------12-------12~-|
|-7-7-7-7-9-9-9-9-10-10-10-10-10-10-10-10----10-9----9-----------------|
|------------------------------------------------------11----11-9------|
|----------------------------------------------------------------------|
|----------------------------------------------------------------------|
|----------------------------------------------------------------------|

Intro    
Verse 1  
Verse 2  
Chorus   
Intro
Verse 1
Verse 2
Chorus x2
Bridge
Verse 2
[2 measures silence]
Chorus x2
Comments