Hayden - Bad As They Seem Chords & Tabs

 

Bad As They Seem Chords & Tabs

Hayden Chords & Tabs

Version: 2 Type: Tab 0 ratings
1 star 2 stars 3 stars 4 stars 5 stars
comments

Bad As They Seem Tab

   
Bad As They Seem
By: Chris Wilson (oxbow@muskoka.com)
Song: "Bad As They Seem" by "Hayden"
Album: "Everything I Long For"


Tuning: Down 1 step, except the low E is tuned down to A


D|--------------------------------------------------------------------------|
A|--------------------------------------------------------------------------|
F|--------------------------------------------------------------------------|
C|--------------------------------------------------------------------------|
G|---2---2---2---2--/--7---7---7---7--\--3---3---0---0---0---0-0-0--0h5---5-|
A|---0---0---0---0-----8---8---8---8-----5---5---5---5---5---5-5-5----------|

[Each line of verse below, is one line of tab above]

Girl of my dreams
Things are as bad as they seem
She's only sixteen
That's why she's only a dream

Women of my dreams
Lives right down my street
Has a daughter who's sixteen
That's why she's only a dream

[Chorus]
[ Tab from: http://www.guitartabs.cc/tabs/h/hayden/bad_as_they_seem_tab_ver_2.html ]
D|-------------------------------------------------------------------------|
A|-------------------------------------------------------------------------|
F|-------------------------------------------------------------------------|
C|-------------------------------------------------------------------------|
G|---7---7---7---7-7-7--/--9-----9-----9----9---9---9----------------------|
A|---8---8---8---8-8-8----10----10----10---10--10--10----------------------|
    W h a t     d o      I       d  o     t  h  i  s       F o  r

I've got to get out some more
Go down to the grocery store
meet some one I'll adore

D|-------------------------------------------------------------------------|
A|-------------------------------------------------------------------------|
F|-------------------------------------------------------------------------|
C|-------------------------------------------------------------------------|
G|---0---0---0---0---0---0---0~5---5---0---0---0---0---0---0---0h5---5-----|
A|---3---3---3---3---3---3-----------------3---3---3---3---3---3-----------|
      A d o r e   

Someone who'll make me laugh
Someone to be my better half
Keep me warm under the sack
Share with me my midnight  snack

[Back to the main verse again]

Job of my dreams
Things are as bad as they seem
Working where I did at fourteen
Making less pay it seems

[Chorus]

[Back to main verse again]

House of my dreams
Things are as bad as they seem
Parents house I'll stay for free
Till I'm at least fourty-three

[Chorus]
====
Comments