Hawthorne Heights - Where Can I Stab Myself In The Ears Chords & Tabs

 

Where Can I Stab Myself In The Ears Chords & Tabs

Hawthorne Heights Chords & Tabs

Version: 3 Type: Tab

Where Can I Stab Myself In The Ears Tab

   
                        Where Can I Stab Myself In The Ears
                             If Only You Were Lonely   
                                Hawthorne Heights
                                 Victory Records
                                  Released 2006
Tabbed By: Joe
Email: motoracr@hotmail.com

I'm pretty sure this tab is almost 100% correct. There might be a few mistakes, but I
have spent countless hours trying to get it exact for all these people that try to tab
it, but they just put stuff in and call it good. That isn't a tab. If you’re just going
to half ass the song and not include all the guitar parts then don't tab it. I rest my
case...now enjoy!

Tuning: DADGBe

() - Let Ring
 ~ - Vibrato
 . - Palm Mute
 * - Pinch Harmonic
 x - Fret Mute
 p - Pull Off
 h - Hammer On
 12\ - Slide Down From 12th Fret 
 T - 10th Fret 
 E - 11th Fret
 V - 12th Fret
 F - 14th Fret


Guitar 1 Clean - Intro - 0:00-0:17 
E|----------------------------------|
B|---(11)----(12)-------(11)----(11)|
G|----------------------------------|
D|(13)---(13)---------------(13)----| I think you repeat this 12x 
A|----------------------------------| I lose count. So if you listen to the 
D|----------------------------------| song maybe you can get it. Sorry

Guitar 2&3 Distortion - Intro - 0:05-0:16
E|--------------------------|-------------------------|
B|--------------------------|-------------------------|
G|---------(6)-44-----------|---------(6)-44----------|
D|(1)------(6)-44-----(6)---|(1)------(6)-44-----66---|
A|(1)------(4)-22-----(6)---|(1)------(4)-22-----66---|
D|(1)-----------------(6)---|(1)-----------------66---|
                                                 ..

Guitar 1 Distortion - Verse - 0:22-0:37
E|-------------------------|-------------------------------------------|
B|12-(11)------------------|-------------------------------------------|
G|-------------------------|4h6--66-66--6666--TTTT--EEEE-6666-TTTT-EEEE|
D|-------------------------|-------------------------------------------|
A|-------------------------|-------------------------------------------|
D|-------------------------|-------------------------------------------|

E|-----------------------------------|
B|-----------------------------------|
G|-E------T-----6----E--T-----6--EEEE|
D|-----------------------------------|
A|-----------------------------------|
D|-----------------------------------|

Guitar 2&3 Distortion - Verse - 0:17-0:37
E|---------------------------------------|
B|---------------------------------------|
G|--------------6666--44444444444--------|Play 3x and the fourth time 
D|111111111111--6666--44444444444--6666--|guitar 1 plays this and guitar 2
A|111111111111--4444--22222222222--6666--|plays this and guitar 3 plays this
D|111111111111---------------------6666--|(all seen below)
  ............  ....  ...........  ....

Guitar 1 Distortion - Fill 
E|-----------------------------------------------------|
B|-----------------------------------------------------|
G|-------------6666-444444444444---44--4---------------|
D|111111111111-6666-444444444444---44--4----66(1)------|
A|111111111111-4444-222222222222---22--2----66(1)------|
D|111111111111------------------------------66(1)------|
                                            ..

Guitar 2 Distortion - Fill
E|-----------------------------------------------------|
B|-----------------------------------------------------|
G|-------------6666-444444444444---44--4---------------|
D|111111111111-6666-444444444444---44--4----66(1)------|
A|111111111111-4444-222222222222---22--2----66(1)------|
D|111111111111------------------------------66(1)------|
                                            ..
Guitar 3 Distortion - Fill
E|-----------------------------------------------------|
B|-----------------------------------------------------|
G|-------------6666-444444444444---44--4---------------|
D|111111111111-6666-444444444444---44--4----66(1)------|
A|111111111111-4444-222222222222---22--2----66(1)------|
D|111111111111------------------------------66(1)------|
  ............ .... ............   ..  .    ..

Guitar 1 Distortion - Pre-Chorus - 0:39-0:44
E|-----------------------------------------------------|
B|-----------------------------------------------------|
G|--You don't strike this note, it's just continued----|
D|(1)--------------------------------------------------|
A|(1)This is continued from the ending note on the fill|
D|(1)--------------------------------------------------|

Guitar 2 Distortion - Pre-Chorus - 0:39-0:44
E|----------------------------------------------|
B|------------------------9999-TTTT-VVVV-FFFF---|
G|----------------------------------------------|
D|6666--8888--9999--VVVV--6666-8888-9999-EEEE---|
A|4444--6666--7777--TTTT------------------------|
D|----------------------------------------------|
  ....  ....  ....  ....

Guitar 3 Distortion - Pre-Chorus - 0:39-0:44
E|-------------------------------------------------|
B|-------------------------------------------------|
G|-------------------------------------------------|
D|6666--8888--9999--EEEE--6666--8888--9999--VVVV---|
A|4444--6666--7777--9999--4444--6666--7777--TTTT---|
D|-------------------------------------------------|

Guitar 1 Distortion – Chorus – 0:45-1:12
E|---------------------------------------------------------------------|
B|---------------------------------------------------------------------|
G|4444444444444444--66666666--4----6-----6666----8888----TTTT----EEEE--|
D|4444444444444444--66666666-x4---x6--x1-xxxx-x1-xxxx-x1-xxxx-x1-xxxx--|
A|2222222222222222--44444444-x2---x4--x1-4444-x1-6666-x1-8888-x1-9999--|
D|---------------------------x----x---x1------x1------x1------x1-------|

E|---------------------------------------------------------------------|
B|---------------------------------------------------------------------|
G|4444444444444444--66666666--4----6-----6666----8888----TTTT----EEEE--|
D|4444444444444444--66666666-x4---x6--x1-xxxx-x1-xxxx-x1-xxxx-x1-xxxx--|
A|2222222222222222--44444444-x2---x4--x1-4444-x1-6666-x1-8888-x1-9999--|
D|---------------------------x----x---x1------x1------x1------x1-------|

E|-----------------------------------|
B|-----------------------------------|
G|4-4-4-4-4-4-4-4--6-6-6-6---4---6---|
D|4-4-4-4-4-4-4-4--6-6-6-6---4---6---|
A|2-2-2-2-2-2-2-2--4-4-4-4---2---4---|
D|-----------------------------------|

Guitar 2&3 Distortion - Chorus - 0:45-1:12
e|--------------------------------------|--------------------------|
B|--------------------------------------|--------------------------|
G|4444444444444444-66666666--x4---x6----|------------------------x4|
D|4444444444444444-66666666--x4---x6----|x1----x1----x1----x1----x4|
A|2222222222222222-44444444--x2---x4----|x1----x1----x1----x1----x2|
D|--------------------------------------|x1----x1----x1----x1------|
Repeat

Guitar 1 Distortion - Verse - 1:13-1:35
E|-------------------------|            |---------------------------------|
B|-------------------------|            |---------------------------------|
G|-------------------------|            |---6-6p4-----6-66----6-6--4---6--|
D|-------------------------| <-Repeat-> |x1--------x1------x1-----x4--x6--|
A|-------------------------|            |x1--------x1------x1-----x2--x4--|
D|-------------------------|            |x1--------x1------x1-----x---x---|

Guitar 2&3 Distortion - Verse - 1:13-1:35
E|-------------------------|            |---------------------------------|
B|-------------------------|            |---------------------------------|
G|-------------------4---6-|            |-------------------------4---6---| 
D|x1----x1----x1----x4--x6-| <-Repeat-> |x1-------x1------x1-----x4--x6---|
A|x1----x1----x1----x2--x4-|            |x1-------x1------x1-----x2--x4---|
D|x1----x1----x1----x---x--|            |x1-------x1------x1-----x---x----|

Guitar 1 Distortion - Fill - 1:34-1:35
E|----------|
B|----------|
G|----------|
D|4--6---8--|
A|----------|
D|----------|

Guitar 2&3 Distortion - Fill - 1:34-1:35
E|----------|
B|----------|
G|----------|
D|----------|
A|5--7---9--|
D|----------|
[ Tab from: http://www.guitartabs.cc/tabs/h/hawthorne_heights/where_can_i_stab_myself_in_the_ears_tab_ver_3.html ]
Repeat Chorus - 1:35-2:03                                               (6)
                                                                        (6)
Guitar 2&3 Distortion - Verse - 2:04-2:14    2nd Ending - 2:15 Replaces (6)
E|-------------------------------|                 |--------|
B|-------------------------------|                 |--------|
G|-----------(6)--(4)------------|                 |--------|
D|(1)--------(6)--(4)------(6)---|<-Repeat         |66------|
A|(1)--------(4)--(2)------(6)---|                 |66------|
D|(1)----------------------(6)---|                 |66------|
                                                    ..

Guitar 1 Distortion - Verse - 2:16-2:25
E|----------------------------------|
B|---(11)---(12)------(11)----(11)--|
G|----------------------------------|
D|(13)---(13)-------------(13)------|
A|----------------------------------|
D|----------------------------------|

Guitar 2&3 Distortion - Verse - 2:16-2:25
E|-------------------------|--------------------------|
B|-------------------------|--------------------------| 
G|-------(6)--(4)----------|------(6)--(4)------------|
D|(1)----(6)--(4)------(6)-|(1)---(6)--(4)-------66---| Repeat
A|(1)----(4)--(2)------(6)-|(1)---(4)--(2)-------66---|
D|(1)------------------(6)-|(1)------------------66---|
                                                 ..
Guitar 1&2 Distortion - Bridge - 2:26-3:02
E|----------------------------V*|-------------------V*|
B|------------------------------|---------------------|
G|------------------------------|---------------------|
D|-----3h5p3-----4h6p4---4h6----|---3h5p3-----4h6p4---|   
A|------------------------------|---------------------|
D|------------------------------|---------------------|

E|---------------------------V*-|-------------------V*|
B|------------------------------|---------------------|
G|------------------------------|---------------------|
D|-----3h5p3-----4h6p4---4h6----|---3h5p3-----4h6p4---|   
A|------------------------------|---------------------|
D|------------------------------|---------------------|

E|---------------------------V*-|-------------------V*|
B|------------------------------|---------------------|
G|------------------------------|---------------------|
D|-----3h5p3-----4h6p4---4h6----|---3h5p3-----4h6p4---|   
A|------------------------------|---------------------|
D|------------------------------|---------------------|

E|---------------------------V*-|-------------------V*|
B|------------------------------|---------------------|
G|------------------------------|---------------------|
D|-----3h5p3-----4h6p4---4h6----|---3h5p3-----4h6p4---|   
A|------------------------------|---------------------|
D|------------------------------|---------------------|

E|------------------------------|------------------------------|
B|------------------------------|------------------------------|
G|------------------------------|------------------------8~~~~-|
D|-----4h6p4-----6h8p6---6h8-9--|-----4h6p4-----6h8p6----------|
A|------------------------------|------------------------------|
D|------------------------------|------------------------------|

E|---------------------------V*-|-------------------V*|
B|------------------------------|---------------------|
G|------------------------------|---------------------|
D|-----3h5p3-----4h6p4---4h6----|---3h5p3-----4h6p4---|   
A|------------------------------|---------------------|
D|------------------------------|---------------------|

Guitar 3 Distortion - Bridge - 2:26-3:02
E|--------------------|----------------------|-----------|
B|--------------------|----------------------|-----------|
G|--------------------|----------------------|-----------|
D|(1)---------11------|(1)--------------11---|---10\-----|
A|(1)---------11------|(1)--------------11---|---10\-----|
D|(1)---------11------|(1)--------------11---|---10\-----|
              ..                        ..
E|--------------------------------------------------------|
B|--------------------------------------------------------|
G|--------------------------------------------------------|
D|11-------11--------1--------11---------11---------1-----| Repeat
A|11-------11--------1--------11---------11---------1-----|
D|11-------11--------1--------11---------11---------1-----|
  ..       ..        .        ..         ..         .
E|--------------------------------------------------------|
B|--------------------------------------------------------|
G|--------------------------------------------------------|
D|44-------44-----4--------66---------66--------6---------|
A|22-------22-----2--------44---------44--------4---------|
D|--------------------------------------------------------|
  ..       ..     .        ..         ..        .
E|--------------------------------------------------------|
B|--------------------------------------------------------|
G|--------------------------------------------------------|
D|11-------11--------1--------11---------11---------1-----| 
A|11-------11--------1--------11---------11---------1-----|
D|11-------11--------1--------11---------11---------1-----|
  ..       ..        .        ..         ..         .

Guitar 1 Distortion - Outro - 3:03-3:42
E|------------------------------------------|
B|------------------------------------------|
G|------------------------------------------|
D|-1111111111111111111111111111111111111111-|
A|-1111111111111111111111111111111111111111-|
D|-1111111111111111111111111111111111111111-|

E|-----------------------------------------|
B|-----------------------------------------|
G|-----6666------8888------TTTT------EEEE--|
D|x1-1-xxxx-x1-1-xxxx-x1-1-xxxx-x1-1-xxxx--|
A|x1-1-4444-x1-1-6666-x1-1-8888-x1-1-9999--|
D|x1-1------x1-1------x1-1------x1-1-------|

E|------------------------------------------|
B|------------------------------------------|
G|-4444444444444444444444444444444444444444-|
D|-4444444444444444444444444444444444444444-|
A|-4444444444444444444444444444444444444444-|
D|------------------------------------------|

E|------------------------------------------|
B|------------------------------------------|
G|------------------------------------------|
D|-6666666666666666666666666666666666666666-|
A|-6666666666666666666666666666666666666666-|                  
D|-6666666666666666666666666666666666666666-|

Guitar 2&3 - Distortion - Outro - 3:03-3:42
E|------------------------------------------|
B|------------------------------------------|
G|------------------------------------------|
D|-1111111111111111111111111111111111111111-|
A|-1111111111111111111111111111111111111111-|
D|-1111111111111111111111111111111111111111-|

E|------------------------------------------|
B|------------------------------------------|
G|------------------------------------------|
D|-1111111111111111111111111111111111111111-|
A|-1111111111111111111111111111111111111111-|
D|-1111111111111111111111111111111111111111-|

E|------------------------------------------|
B|------------------------------------------|
G|-4444444444444444444444444444444444444444-|
D|-4444444444444444444444444444444444444444-|
A|-4444444444444444444444444444444444444444-|
D|------------------------------------------|

E|------------------------------------------|
B|------------------------------------------|
G|------------------------------------------|
D|-6666666666666666666666666666666666666666-|
A|-6666666666666666666666666666666666666666-|                  
D|-6666666666666666666666666666666666666666-|

Guitar 1 Clean - Outro Fill - 3:25-3:42
E|----------------------------------|
B|---(11)----(12)-------(11)----(11)|
G|----------------------------------|
D|(13)---(13)---------------(13)----|  
A|----------------------------------|  
D|----------------------------------| 

Guitar 2&3 - Outro Fill - 3:25-3:42
E|-----------------------|
B|-----------------------|
G|-----------------------|
D|(1)--------------------|
A|(1)--------------------|
D|(1)--------------------|