Hawthorne Heights - Where Can I Stab Myself In The Ears Chords & Tabs

 

Where Can I Stab Myself In The Ears Chords & Tabs

Hawthorne Heights Chords & Tabs

Version: 1 Type: Tab

Where Can I Stab Myself In The Ears Tab

----------------------------------------------------------------------------
        where can i stab myself in the ears - hawthorne heights
----------------------------------------------------------------------------
this is a new song off of hawthorne heights and i can only get the intro
this is my second tab and i'm only 11 years old 
[ Tab from: http://www.guitartabs.cc/tabs/h/hawthorne_heights/where_can_i_stab_myself_in_the_ears_tab.html ]
Tuning: standard
   
guitar 1
e|-------------------------------------------------------------------------|
B|-----------------12------------------------------------------------------|
G|--------15-----------15--15----------------------------------------------|
D|-------------------------------------------------------------------------|
A|----13------13-----------------------------------------------------------|
E|-------------------------------------------------------------------------|

guitar 2
e|-------------------------------------------------------------------------|
B|-------------------------------------------------------------------------|
G|-----------6----4-----3--------------------------------------------------|
D|--2~-------6----4-----3--------------------------------------------------|
A|--2~-------4----2-----1--------------------------------------------------|
E|--0~---------------------------------------------------------------------|