Hawthorne Heights - Where Can I Stab Myself In The Ears Chords & Tabs

 

Where Can I Stab Myself In The Ears Chords & Tabs

Hawthorne Heights Chords & Tabs

Version: 1 Type: Bass Tab

Where Can I Stab Myself In The Ears Bass Tab

Band : Hawthorne Heights
Song : Where Can I Stab Myself In The Ears
Tabber : Dennis Denison (Xfadeld)

This is an amazing song, Its off the new album "If Only You Were Lonely". It took a
very long time to tab so hopefully you guys will enjoy it. Im almost 100% that every
part of this tab is correct. This is my second tab, comment or rate it please, it will
be appreciated. :). 

r=rest
h=hammer on
\=slide down

G|-------------------------------------------|
D|-------------------------------------------|
A|-----5-3-r-1---5-3-------------------------|
E|--0~---------0------00---------------------|

G|-------------------------------------------|
D|-------------------------------------------|x3
A|-------------------------------------------|
E|--1111111111-3333-555555555555-3333--------|

G|-------------------------------------------|
D|-------------------------------------------|
A|-----------------------------333-22--------|
E|--111111111111-3333-55555555--------1~-----|

Chorus
G|-------------------------------------|
D|-------------------------------------|
A|-------------------------------------|
E|--5-5-5-5-5-5-5-5-3-3-3-3-5-5-6-6----|

G|-------------------------------------------|
D|-------------------------------------------|x2
A|-------------------------------------------|
E|-5r-5r-5r-5r-7-66666666-8888-6-4-0---------|
[ Tab from: http://www.guitartabs.cc/tabs/h/hawthorne_heights/where_can_i_stab_myself_in_the_ears_btab.html ]
G|-------------------------------------------|
D|-------------------------------------------|x3
A|-------------------------------------------|
E|-5-55-55-77-66-55--------------------------|

G|-------------------------------------------|
D|-------------------------------------------|
A|-------------------------------------------|
E|-5-55-55-----------------------------------|

Chorus
G|------------------------------------|
D|------------------------------------|
A|------------------------------------|
E|--5-5-5-5-5-5-5-5-3-3-3-3-5-5-6-6---|

G|-------------------------------------------|
D|-------------------------------------------|x2
A|-------------------------------------------|
E|-5r-5r-5r-5r-7-66666666-8888-6-4-----------|

G|-------------------------------------------|
D|-------------------------------------------|x2
A|-------------------------------------------|
E|-0~-3-5~-3-0~-3-5~-------------------------|

G|--------|
D|--------|x2
A|--------|
E|-0~-11--|

G|--------|
D|--------|
A|--------|
E|-5\-----|

G|----------------------------------------------------------|
D|----------------------------------------------------------|
A|----------------------------------------------------------|
E|-55-55-5~-55-55-5~-55-55-5~-55-55-5~-66-66-6~-77-77-7~----|

G|---------------------------|
D|---------------------------|
A|---------------------------|
E|-55-55-5~-55-55-5-5~-------|

G|---------------------------------------|
D|---------------------------------------|
A|---------------------------------------|
E|-5~~-5~~-5~~-5~~-6~~-6~~-7~~-7~~-5~~---|