Hawthorne Heights - This Is Who We Are Chords & Tabs

 

This Is Who We Are Chords & Tabs

Hawthorne Heights Chords & Tabs

Version: 2 Type: Tab

This Is Who We Are Tab

   
I saw that this song had only one tab, so I'm gonna try it out. I really think that the 
guitar barely exists in this song.

*= palm mute
/= slide up
x= mute
~= hold
                         Guitar 1

Intro x2
e---------------------------------------------------------|
b------7-7/8----7-7/8----7-7/8-------10-10/12--10-10/12---|
g------x-x-x----x-x-x----x-x-x--------x-x-x-----x--x-x----|
d--22--4-4/5-22-4-4/5-22-4-4/5-222-22-7--7/9-22-7--7/9-22-|
a--22--------22-------22-------222-22--------22--------22-|
E--00--------00-------00-------000-00--------00--------00-|
   **        **       **       *** **        **        **
1st ending                    2nd ending
e--10-10--------10-10-------  e--10-----12-10--10-----12-10------|
b-------10-12-12-----12-10~-  b----12-10-----12--12-10-----10-8~-|
g---------------------------  g----------------------------------|
d---------------------------  d----------------------------------|
a---------------------------  a----------------------------------|
E---------------------------  E----------------------------------|

Verse 1
e-----------------------------------------|
b-----------------------------------------|
g--4-54----4-4-54----4-4-54-----4-4-54----|
d--4-54-77-4-4-54-77-4-4-54-77--4-4-54-77-|
a--2-32-77-2-2-32-77-2-2-32-77--2-2-32-77-|
E-------55--------55--------55---------55-|


Pre Chorus
e---------|
b---------|
g------5~-|
d--2~--5~-|
a--2~--3~-|
E--0~-----|

Chorus
e----------------------------------|
b----------------------------------|
g-----------------5555555577777777-|
d-22222222222222225555555577777777-
a-22222222222222223333333355555555-
E-0000000000000000-----------------

Verse 2
e------------------------------------------------------------------|
b------------------------------------------------------------------|
g----------------------------------5-5555555555555-7-7777777777777-|
d--2-2222222222222-2-2222222222222-5-5555555555555-7-7777777777777-|
a--2-2222222222222-2-2222222222222-3-3333333333333-5-5555555555555-|
E--0-0000000000000-0-0000000000000---------------------------------|
     *************   *************   *************   *************
Bridge x4
e-----------------------------------------------------|
b-----------------------------------------------------|
g-------------------------55555-55-55-55555-------777-|
d-22222-22-22-22222-22-22-55555-55-55-55555-77-77-777-|
a-22222-22-22-22222-22-22-33333-33-33-33333-77-77-555-|
E-00000-00-00-00000-00-00-------------------55-55-----|
  ***** ** ** ***** ** ** ***** ** ** ***** ** ** ***
3rd n 4th time through w/ no p.m.
[ Tab from: http://www.guitartabs.cc/tabs/h/hawthorne_heights/this_is_who_we_are_tab_ver_2.html ]
Before Last Chorus
e---------------------------------------------|
b----7-7/8----7-7/8-------10-10/12---10-10/12-|
g----x-x-x----x-x-x--------x--x-x-----x--x-x--|
d-22-4-4/5-22-4-4/5-222-22-7--7/9--22-7--7/9--|
a-22-------22-------222-22---------22---------|
E-00-------00-------000-00---------00---------|
  **       **       *** **         **
e--------------------------------------------------------|
b--------7-7/8--------7-7/8-------10-10/12---10-10/12----|
g-----55-x-x-x-555-55-x-x-x-555-77-x--x-x--77-x--x-x--77-|
d-222-55-4-4/5-555-55-4-4/5-555-77-7--7/9--77-7--7/9--77-|
a-222-33-------333-33-------333-55---------55---------55-|
E-000----------------------------------------------------|
  *** **       *** **       *** **         **         **
Outro
e-----------------|
b----7-7/8---10---|
g----x-x-x----x-9-|
d-22-4-4/5-22-7-9-|
a-22-------22---7-|
E-00-------00-----|
  **       **
                            Guitar 2
Intro x2
e-------------------       -------------------------------------|
b----7-7/8----7-7/8-       --------------------7777777777777777-|
g----x-x-x----x-x-x-       --55555555555555555-7777777777777777-|
d-22-4-4/5-22-4-4/5- twice --55555555555555555-5555555555555555-|
a-22-------22-------       --33333333333333333------------------|
E-00-------00-------       -------------------------------------|

Verse and pre-chorus guitar 1 only

Chorus x2
e---------------------------|
b--78-78-1012-1012-1210-87~-|
g--xx-xx--x-x--x-x--x-x-xx--|
d--45-45--7-9--7-9--9-7-54~-|
a---------------------------|
E---------------------------|

Bridge                           this part alot
e-----------------------------   ----------|
b--10-------10-------------10-   --7--7--7-|
g----11-------11---------11---   ---7--7---|
d------12-------12-----12-----   -5--5--5--|
a--------10-------10-10-------   ----------|
E-----------------------------   ----------|

when g1 palm mutes g2 does that part too

Before last Chorus
e----------------------     ------------------------------------------------|
b----7-7/8----7-7/8----     ----7-7/8----7-7/8--------7-7/8--------7-7/8----|
g----x-x-x----x-x-x----     -55-x-x-x-55-x-x-x-555-77-x-x-x-777-77-x-x-x-77-|
d-22-4-4/5-22-4-4/5----twice-55-4-4/5-55-4-4/5-555-77-4-4/5-777-77-4-4/5-77-|
a-22-------22----------     -33-------33-------333-55-------555-55-------55-|
E-00-------00-------000     ------------------------------------------------|
  **       **       ***      **       **       *** **       *** **       **
Outro
e-----------------|
b----7-7/8---10---|
g----x-x-x----x-9-|
d-22-4-4/5-22-7-9-|
a-22-------22---7-|
E-00-------00-----|
  **       **
                      Guitar 3
Intro x2
e-------------------       -------------------------------------|
b----7-7/8----7-7/8-       --------------------7777777777777777-|
g----x-x-x----x-x-x-       --55555555555555555-7777777777777777-|
d-22-4-4/5-22-4-4/5- twice --55555555555555555-5555555555555555-|
a-22-------22-------       --33333333333333333------------------|
E-00-------00-------       -------------------------------------|

verse and pre-chorus guitar 1 only

Chorus
e---------------------------------------|
b-78-78-1012-1012-1210-87-12-10---------|
g-xx-xx--x-x--x-x--x-x-xx------12-11----|
d-45-45--7-9--7-9--9-7-54-----------10~-|
a---------------------------------------|
E---------------------------------------|

Bridge                           this part alot
e-----------------------------   ----------|
b--10-------10-------------10-   --7--7--7-|
g----11-------11---------11---   ---7--7---|
d------12-------12-----12-----   -5--5--5--|
a--------10-------10-10-------   ----------|
E-----------------------------   ----------|

Before last Chorus
e----------------------     ------------------------------------------------|
b----7-7/8----7-7/8----     ----7-7/8----7-7/8--------7-7/8--------7-7/8----|
g----x-x-x----x-x-x----     -55-x-x-x-55-x-x-x-555-77-x-x-x-777-77-x-x-x-77-|
d-22-4-4/5-22-4-4/5----twice-55-4-4/5-55-4-4/5-555-77-4-4/5-777-77-4-4/5-77-|
a-22-------22----------     -33-------33-------333-55-------555-55-------55-|
E-00-------00-------000     ------------------------------------------------|
  **       **       ***      **       **       *** **       *** **       **
Outro
e-----------------|
b----7-7/8---10---|
g----x-x-x----x-9-|
d-22-4-4/5-22-7-9-|
a-22-------22---7-|
E-00-------00-----|
  **       **

thats it.......any corrections or anything comment or contact me, email ffafrox@aol.com 
IM ffafrox on AIM