Hawthorne Heights - Speeding Up The Octaves Chords & Tabs

 

Speeding Up The Octaves Chords & Tabs

Hawthorne Heights Chords & Tabs

Version: 1 Type: Tab

Speeding Up The Octaves Tab

E|-----------------------------------||
B|-----------------------------------||
G|---------555-555-222-222-444-444---||
D|-222-222-555-555-222-222-444-444---||
A|-222-222-333-333-000-000-222-222---||x2
E|-000-000---------------------------||
[ Tab from: http://www.guitartabs.cc/tabs/h/hawthorne_heights/speeding_up_the_octaves_tab.html ]
E|------||
B|------||
G|------||
D|------||
A|-2~---||x4
E|-0~---||

E|-------------||
B|-5-----------||
G|---4-5-2-4---||
D|-------------||
A|-------------||x4
E|-------------||

E|-------------------------||
B|-5-----------------------||
G|---4-5-2-4-0-2-3---------||
D|-----------------4-5-2---||
A|-------------------------||
E|-------------------------||