Hawthorne Heights - Saying Sorry Chords & Tabs

 

Saying Sorry Chords & Tabs

Hawthorne Heights Chords & Tabs

Version: 4 Type: Tab

Saying Sorry Tab

I'm pretty sure this is at least 97% right...its my first tab and im only 13 so I'm
still developing my ear for some notes. No Strumming shown for the most part, its
easy enough to figure out.

Standard Tuning

Intro Lead
e--------------------12-14---|
b--14-12-14-12-14-12-14-14---|
g--13-13-13-13-13-13-13-13---|
d--11-11-11-11-11-11-11-11---|
a----------------------------|
E----------------------------|

Intro Rhythm
e-------------------------|
b-------------------------|
g--6-9---6-9---6-9--------|
d--6-9-9-6-9-9-6-9-9-7-9--|
a--4-7-9-4-7-9-4-7-9-7-9--|
E------7-----7-----7-5-7--|

Verse Rhythm x4
e---------------|
b---------------|
g--66-6~--------|
d--66-6~--------|
a--44-4~--------|
E---------------|
   **

Verse Lead
e---------------------------------|
b---------------------------------|
g--66-6~--66-6~--------------88---|
d--66-6~--66-6~-----77-----99--99-|
a--44-4~--44-4~---77--77-77-------|
E---------------55----------------|
   **     **    ******** ********

Pre-Chorus Lead
e--4-44-4-44-4-4h5p4-4-44-4-44-4-44-------------------|
b---5----5------------5----5----5----14-14--14-14-14--|
g------------------------------------13-13--13-13-13--|
d------------------------------------11-11--11-11-11--|
a-----------------------------------------------------|
E-----------------------------------------------------|

Pre-Chorus Rhythm
e----------------------------------------|
b---------------------14-14--14-14-14----|
g---------------------13-13--13-13-13----|
d---------------------11-11--11-11-11----|
a--7-9-11-9-7-9-11-9---------------------|
E--5-7-9--7-5-7-9--7---------------------|
   * * *  * * * *  *

Chorus Both x2
e---------------------------|
b----12---10----9---7-5-----|
g----11---9-----8---6-4-----|
d--7-9--9-7--11-6-9-4-2-----|
a--7----9----11---9---------|
E--5----7----9----7---------|
[ Tab from: http://www.guitartabs.cc/tabs/h/hawthorne_heights/saying_sorry_tab_ver_4.html ]
Verse 2 Lead x2                  Dont play this 2nd time
e------------------------   -----------------------|
b-------------4h5p4-2-02-   --5---5---7---7--------|
g--6-666666--------------   ---666-666-888-88------|
d--6-666666--------------X2 -----------------------|
a--4 444444--------------   -----------------------|
E------------------------   -----------------------|
     ******
2nd time ending
e---------|
b-2~--5~--|
g---------|
d---------|
a---------|
E---------|
Verse 2 Rhythm x2
e------------------   ---------|
b------------------   ---------|
g--6-6666666666666-   ---------|
d--6-6666666666666-x2 ---7--9--|
a--4-4444444444444-   ---7--9--|
E------------------   ---5~-7~-|
     *************

repeat pre-chorus and chorus

Bridge Lead, you may have to listen a little
e------------------------   ---------|
b------------------------   ---------|
g-----------1------------   ---------|
d----------2---4~--------x2 ---------|
a-2-4~-2-4~--------2-0~--   --2-0~---|
E------------------------   ---------|

Bridge Rhythm, Acoustic
e---0-0---|
b---0-0---|
g---6-4---|
d---6-4-7-|
a---4-2-7-|
E-------5-|
Synthesizer part, Rhythm
e--16----16----16----16~-   e--16----16----16----16~-|
b----17----17----17------   b----17----17----17------|
g------16----16----16----   g------14----14----14----|
d------------------------x2 d------------------------|
a------------------------   a------------------------|
E------------------------   E------------------------|

e--12----12----12----12~--12~-|
b----12----12----12-----12----|
g------13----13----13---------|
d-----------------------------|
a-----------------------------|
E-----------------------------|

repeat chorus a few times

Outro Lead
e---------------------------------|
b--12-14--10-12-9-5-7-9-10-9------|
g--11-13--9--11-8-4-6-8-9--8~-----|
d--9--11--7--9--6-2-4-6-7--6~-----|
a---------------------------------|
E---------------------------------|

Outro Rhythm
e------------|
b------------|
g------------|
d--7-9-11-7~-|
a--7-9-11-7~-|
E--5-7-9--5~-|