Hawthorne Heights - Saying Sorry Chords & Tabs

 

Saying Sorry Chords & Tabs

Hawthorne Heights Chords & Tabs

Version: 2 Type: Tab

Saying Sorry Tab

i only got a couple of parts down but im working on it

Intro

|-------------------------------------------------------------------------|
|-------------------------------------------------------------------------|
|--------4-44---------------4-44----------------4-44----------------------|
|6-6-666-2-22-4-444-6-6-666-2-22-4-444-6-6-666--2-22-444-2-2-222-2-22-2-44|
|4-4-444------2-222-4-4-444------2-222-4-4-444-------222-0-0-000-0-00-0-22|
|-------------------------------------------------------------------------|


Verse

|---------------------------|
|---------------------------|
|---------------------------|  play twice then last time right before the 
|666~----666~---------------|  prechorus ring out on 0
|444~----444~---0~---2~-(0~)|
|---------------------------|

CHORUS

|---------------------------------------| play 2 times then go straight 
|---------------------------------------| into the post chorus
|------4-44------2-22------1-11------2-1|
|6-66--2-22-4-44-1-11-6-66-2-22-4-44-1-1|
|4-44-------2-22------4-44------2-22----|
|---------------------------------------|

post chorus

|---------------------------------------|
|---------------------------------------|
|---------------------------------------|
|6~66666666666~6666666666-2~~~4~~~~-----|
|4~44444444444~4444444444-0~~~2~~~~-(0~)|
|---------------------------------------|


Chorus

|--------------------------------------------|
|--------------------------------------------|
|------4-44------2-22------1-11------2-1-----|
|6-66--2-22-4-44-1-11-6-66-2-22-4-44-1-1-----|
|4-44-------2-22------4-44------2-22---------|
|--------------------------------------------|

the second time play
|----------------------------------------------------|
|----------------------------------------------------|
|------4-44------2-22------1-11----------------------|
|6-66--2-22-4-44-1-11-6-66-2-22-4-4444444-4444444-6~~| not the exact amount
|4-44-------2-22------4-44------2-2222222-2222222-4~~|
|----------------------------------------------------|

then after the bridge go back into 

Chorus
[ Tab from: http://www.guitartabs.cc/tabs/h/hawthorne_heights/saying_sorry_tab_ver_2.html ]
|--------------------------------------------|
|--------------------------------------------|
|------4-44------2-22------1-11------2-1-----|
|6-66--2-22-4-44-1-11-6-66-2-22-4-44-1-1-----| play six times
|4-44-------2-22------4-44------2-22---------|
|--------------------------------------------|


|----------------------------------------------------|
|----------------------------------------------------|
|------4-44------2-22------1-11----------------------|
|6-66--2-22-4-44-1-11-6-66-2-22-4-4444444-4444444-6~~|then the seventh time
|4-44-------2-22------4-44------2-2222222-2222222-4~~|
|----------------------------------------------------|



|----------------------------------------------------|
|----------------------------------------------------| then the 5th time
|9999999999999999999999999999999999999999999---------| a guitar in the back
|----------------------------------------------------| plays this until the
|7777777777777777777777777777777777777777777---------| outro
|----------------------------------------------------|


Outro
(rythm guitar)

|------------------------------------------------------------------|
|------------------------------------------------------------------| 
|------------------------------------------------------------------|
|2-2-2-2-2-2-2-2-4-4-4-4-4-4-4-4-6-6-6-6-6-6-6-6-6-6-6-6-6-6-6-6-2~|
|0-0-0-0-0-0-0-0-2-2-2-2-2-2-2-2-4-4-4-4-4-4-4-4-4-4-4-4-4-4-4-4-0~|
|------------------------------------------------------------------|

lead octave guitar (outro)

|------------------------------------------------|
|------------------------------------------------| 
|16-16-16-16-16-16-18-18-14-14-14-14-14-14-16-16-|
|------------------------------------------------|
|14-14-14-14-14-14-16-16-12-12-12-12-12-12-14-14-|
|------------------------------------------------|


CONTINUES INTO

|----------------------------------------------------|
|----------------------------------------------------| 
|13-13-13-13-13-13-13-13-9-9-11-11-13-13-14-14-13~~~~|
|----------------------------------------------------|
|11-11-11-11-11-11-11-11-7-7-9--9--11-11-12-12-11~~~~|
|----------------------------------------------------|