Hawthorne Heights - Saying Sorry Chords & Tabs

 

Saying Sorry Chords & Tabs

Hawthorne Heights Chords & Tabs

Version: 1 Type: Tab

Saying Sorry Tab

0:00-00:10
GUITAR1
e-----------------------------------|
B-----------------------------------|
G-----------------------------------|
D3333-6-6----6----------------------|   
A3333-6-6-X3-6-X10------------------|
E1111-4-4----4----------------------|

GUITAR2 0:00-00:10
e-----------------------------------|
B22/5-OVER AND OVER-----------------|
G-----------------------------------|
D-----------------------------------|   
A-----------------------------------|
E-----------------------------------|

00:10-17 AND :17-:25
e-----------------------------------|
B-----------------------------------|
G-----------------------------------|
D-53--------------------------------|   
A-55-X2-----------------------------|
E-33--------------------------------|

:17-:20 AND :25-:39 
e-----------------------------------|
B-----------------------------------|
G-----------------------------------|
D55555-------22222------------------|   
A------33333------------------------|
E-----------------------------------|
PM..................................

:28-:39
e------3----------------------------|
B-2---------------------------------|
G---6-------------------------------|
D-----------------------------------|   
A-----------------------------------|
E-----------------------------------|

[ Tab from: http://www.guitartabs.cc/tabs/h/hawthorne_heights/saying_sorry_tab.html ]
:39-:50
GUITAR 1
e-----------------------------------|
B-----------------------------------|
G---66-----6-6-6~-------------------|
D66-66-X4--6-6-6~-------------------|   
A66-44-----4-4-4~-------------------|
E44---------------------------------|

:50-1:44
REPEAT V AND C

1:44-2:08
ACOUSTIC GUITAR 1
e-----------------------------------|
B-----------------------------------|
G-----------------------------------|
D0-----5----------------------------| X6  
A0-X8--5X8--------------------------|
E0-----5----------------------------|

GUITAR2
1:44-2:08
e-----------------------------------|
B-----------------------------------|
G4---8------------------------------|
D--------2--------------------------|TO FILL   
A-----------------------------------|
E-----------------------------------|

GUITAR1 2:08 TO 2:20
e-----------------------------------|
B-----------------------------------|
G-----------------------------------|
D-53--------------------------------|  X10 
A-55-X2-----------------------------|
E-33--------------------------------|

THEN PLAY CHORUS
TILL END AND
OTHER GUITAR PLAY
e-----------------------------------|
B22/5-OVER AND OVER-----------------|
G-----------------------------------|
D-----------------------------------|   
A-----------------------------------|
E-----------------------------------|