Hawthorne Heights - Sandpaper And Silk Chords & Tabs

 

Sandpaper And Silk Chords & Tabs

Hawthorne Heights Chords & Tabs

Version: 1 Type: Bass Tab 0 ratings
1 star 2 stars 3 stars 4 stars 5 stars
comments

Sandpaper And Silk Bass Tab

   
Song: Sandpaper And Silk
Band: Hawthorne Heights
Tabber: 555_Maggot_666

Stardard Tuning (E,A,D,G)

h= Hammer on
p= Pull off
~= Let note ring
/= Slide up (Higher)
\= Slide down (Lower)

Intro
G|----------------|
D|----------------| x2
A|----------------|
E|-555-55555-5555-|

G|-----------------------------------|
D|-----------------------------------|
A|-------------------------------6h7-|
E|-777-77777-7777---777-7777-7~------|

G|----------------------------------|
D|----------------------------------|
A|----------------------------------|
E|-555-55555-5555---555-55555-55555-|

Verse
G|------------------------------|
D|------------------------------| x2
A|------------------------------|
E|-9~---7-9~--12-11--7~--5-7~-\-|

Pre-Chorus
G|--------|
D|--------|
A|--------|
E|-0-0-0--|

Chorus
G|-------------------------------------------|
D|-------------------------------------------|
A|-------------------------------------------|
E|-555555555555555-777777777777777--0-0-0-9~-|

Verse
G|------------------------------|
D|------------------------------|
A|------------------------------|
E|-9~---7-9~--12-11--7~--5-7~-\-|

Pre-Chorus
G|----------|
D|----------|
A|----------|
E|-0-0-0--5-|
[ Tab from: http://www.guitartabs.cc/tabs/h/hawthorne_heights/sandpaper_and_silk_btab.html ]
Chorus
G|----------------------------------------------------------|
D|----------------------------------------------------------|
A|----------------------------------------------------------|
E|-555555555555555-777777777777777--99999999999-99999999999-|

G|----------------------------------------|
D|----------------------------------------|
A|----------------------------------------|
E|-555555555555555-777777777777777--0-0-0-|

Bridge
G|------------------------------------------------------------|
D|------------------------------------------------------------|
A|--------------0~-------------0~--------------------------0~-|
E|-12-11h12p11-----9~--12\11------12-11-12/14--9~---12\11-----|

G|-------------------------------------|
D|-------------------------------------|
A|-------------------------------------|
E|-9----99----9----99----9----99----9~-|

Chorus
G|----------------------------------------------------------|
D|----------------------------------------------------------| x2
A|----------------------------------------------------------|
E|-555555555555555-777777777777777--99999999999-99999999999-|

G|------------------------------------------------------------|
D|------------------------------------------------------------|
A|------------------------------------------------------------|
E|-555555555555555-777777777777777--0-0-0-9--0-0-0-9--0-0-0-5~|

ENJOY!! :)
Comments