Hawthorne Heights - Pens And Needles Chords & Tabs

 

Pens And Needles Chords & Tabs

Hawthorne Heights Chords & Tabs

Version: 1 Type: Tab

Pens And Needles Tab

   
----------------------------------------------------------------------------
			     Pens and Needles - Hawthorne Heights
----------------------------------------------------------------------------
Awesome song off their new album. This is my first tab so sry if theres any
mistakes. Email for questions.  All in all i think its pretty good.

Tabbed by: ryan
Email: fenderfenatic15@hotmail.com

Tuning: standard
intro                                                   2nd time
e|----------------------------------------------------|---------------------|
B|----------------7 7/9-------------------------------|---------------------|
G|--6x--8 8/9-----8 8/9-----99x-----1111x-------------|-----99x-------------|
D|--6x--------2x---------7x-99x-99x-1111x----(2x)-----|--7x-99x-9-----------|
A|--4x--------2x---------7x-77x-99x--9-9x-------------|--7x-77x-9-----------|
E|------------0x---------5x-----77x-------------------|--5x-----7-----------|

verse
e|---------------------------------77------77-------------------------------|
B|------------------------------------4455----4455-------(4x)---------------|
G|--6-(let ring)-4-(let ring)-----------------------------------------------|
D|--6------------4----------------------------------------------------------|
A|--4------------2----------------------------------------------------------|
E|--------------------------------------------------------------------------|
                        (palm mute).. .... .. ....
pre chorus
e|-------77------77------------99------99-----------------------------------|
B|--4455----4455----4455---4455----4455-----4455----------------------------|
G|--------------------------------------------------------------------------|
D|--------------------------------------------------------------------------|
A|--------------------------------------------------------------------------|
E|--------------------------------------------------------------------------|
[ Tab from: http://www.guitartabs.cc/tabs/h/hawthorne_heights/pens_and_needles_tab.html ]
chorus
e|--------------------------------------------------------------------------|
B|----------------7 7/9-----------------------------------------------------|
G|--6x--8 8/9-----8 8/9-----99x-----1111x-----------------------------------|
D|--6x--------2x---------7x-99x-99x-1111x----(2x)---------------------------|
A|--4x--------2x---------7x-77x-99x--9-9x-----------------------------------|
E|------------0x---------5x-----77x-----------------------------------------|
 (second guitar in parenthesis)
e|--------------------------------------------------------------------------|
B|--(4-4/5)-----------------------------------------------------------------|
G|---6666----------222222---4x4x4x4-----6-----(let ring out)----------------|
D|---6666--222x2x2-222222---4x4x4x4-----6-----------------------------------|
A|---4444--222x2x2-000000---2x2x2x2-----4-----------------------------------|
E|---------000x0x0----------------------------------------------------------|

2nd verse
e|--------------------------------------------------------------------------|
B|--------------------------9~--(let ring out)------------------------------|
G|--6---(let ring out)------------------------------------------------------|
D|--6-----------------------------------------------------------------------|
A|--4-----------------------------------------------------------------------|
E|--------------------------------------------------------------------------|

e|-----------------------------------------77------77-----------------------|
B|--------------------------------------------4455----4455------------------|
G|---666666-----222222--44444444--------------------------------------------|
D|---666666--2--222222--44444444----(2x)------------------------------------|
A|---444444--2--000000--22222222--------------------------------------------|
E|-----------0--------------------------------------------------------------|
     ......  .  ......  ........
solo after 2nd chorus
e|--------------------------------------------------------------------------|
B|--4h5--5-45-4h5p4p0---(3x)-2/4-4-4----------------------------------------|
G|--------------------------------------------------------------------------|
D|--------------------------------------------------------------------------|
A|--------------------------------------------------------------------------|
E|--------------------------------------------------------------------------|

Breakdown/screaming part
e|--------------------------------------------------------------------------|
B|--------------------------------------------------------------------------|
G|---6-------------4--6-------------4--2----------------44444444------------|
D|---6--2-222-222--4--6--2-222-222--4--2--2-222-222--2--44444444------------|
A|---4--2-222-222--2--4--2-222-222--2--0--2-222-222--2--22222222------------|
E|------0-000-000--------0-000-000--------0-000-000--0----------------------|
        . ... ...        . ... ...        . ... ...


Intro 2x
verse
pre chorus
chorus
verse
solo
scream
slow part
chorus

| /  slide up
| \  slide down
| h  hammer-on
| p  pull-off
| ~  vibrato
| +  harmonic
| x  Mute note
===============================================================================