Hawthorne Heights - Ohio Is For Lovers Chords & Tabs

 

Ohio Is For Lovers Chords & Tabs

Hawthorne Heights Chords & Tabs

Version: 8 Type: Tab 0 ratings
1 star 2 stars 3 stars 4 stars 5 stars
comments

Ohio Is For Lovers Tab

   
                               OHIO IS FOR LOVERS
                        As recorded by Hawthorne Heights
              (From the 2004 Album THE SILENCE IN BLACK AND WHITE)

Words by hawthorne Heights

Music by Hawthorne Heights
Arranged by Hawthorne Heights
Transcribed by Ethereal Sin

Sorry about all the guitar tracks. It was just so much easier to tab using
so many and it came out sounding alot better during the MIDI playback. So
please bear with it.

          G#5                  F#5                  E5
      4 6 x x x x          2 4 x x x x          0 2 x x x x

Gtr I (E A D G B E) - 'Untitled'
Gtr II (E A D G B E) - 'Untitled'
Gtr III (E A D G B E) - 'Untitled'
Gtr IV (E A D G B E) - 'Untitled'
Gtr V (E A D G B E) - 'Untitled'
Gtr VI (E A D G B E) - 'Untitled'

 Intro
  Moderately Slow Rock Q=168
  N.C.
 4/4
  Gtr I
  E E E E H      +H     E E E E   E E E E H      +H     E E E E
|--------------|----------------|--------------|-----------------|
|--------------|----------------|--------------|-----------------|
|--------------|----------------|--------------|-----------------|
|---------4----|-(4)--------4---|---------4----|-(4)--------4----|
|---2---2------|----------2---2-|---2---2------|----------2---2--|
|-4---4--------|--------2-------|-4---4--------|--------2--------|


  N.C.
  E E E E H      +H     E E E E   E E E E H      +H     E E E E
|--------------|----------------|--------------|----------------||
|--------------|----------------|--------------|----------------||
|---------4----|-(4)------------|---------4----|-(4)------------||
|---------4----|-(4)--------4---|---------4----|-(4)--------4---||
|---2---2------|----------2---2-|---2---2------|----------2---2-||
|-0---0--------|--------2-------|-0---0--------|--------2-------||


 Verse
  G#m                         F#sus4    G#m                         F#sus4
  Gtr I
  E E E E H         +H        E E E E   E E E E H         +H        E E E E
|-----------------|-------------------|-----------------|-------------------|
|-----------------|-------------------|-----------------|-------------------|
|-----------------|-------------------|-----------------|-------------------|
|---------4-------|-(4)-----------4---|---------4-------|-(4)-----------4---|
|---2---2---------|-------------2---2-|---2---2---------|-------------2---2-|
|-4---4-----------|-----------2-------|-4---4-----------|-----------2-------|
|
| Gtr III
| PM----------------------------------------------------------------------|
| E E E E E E E E    E  E E E E E E E   E E E E E E E E    E  E E E E E E E
|-----------------|-------------------|-----------------|-------------------|
|-----------------|-------------------|-----------------|-------------------|
|-4-4-4-4-4-4-4-4-|--4--4-4-4-4-4-4-4-|-4-4-4-4-4-4-4-4-|--4--4-4-4-4-4-4-4-|
|-6-6-6-6-6-6-6-6-|--6--6-6-6-4-4-4-4-|-6-6-6-6-6-6-6-6-|--6--6-6-6-4-4-4-4-|
|-----------------|-------------------|-----------------|-------------------|
|-----------------|-------------------|-----------------|-------------------|


  E5                          F#sus4    E5                          F#sus4
  E E E E H         +H        E E E E   E E E E H         +H        E E E E
|-----------------|-------------------|-----------------|-------------------|
|-----------------|-------------------|-----------------|-------------------|
|---------4-------|-(4)---------------|---------4-------|-(4)---------------|
|---------4-------|-(4)-----------4---|---------4-------|-(4)-----------4---|
|---2---2---------|-------------2---2-|---2---2---------|-------------2---2-|
|-0---0-----------|-----------2-------|-0---0-----------|-----------2-------|
|
| PM----------------------------------------------------------------------|
| E E E E E E E E    E  E E E E E E E   E E E E E E E E    E  E E E E E E E
|-----------------|-------------------|-----------------|-------------------|
|-----------------|-------------------|-----------------|-------------------|
|-4-4-4-4-4-4-4-4-|--4--4-4-4-4-4-4-4-|-4-4-4-4-4-4-4-4-|--4--4-4-4-4-4-4-4-|
|-2-2-2-2-2-2-2-2-|--2--2-2-2-4-4-4-4-|-2-2-2-2-2-2-2-2-|--2--2-2-2-4-4-4-4-|
|-----------------|-------------------|-----------------|-------------------|
|-----------------|-------------------|-----------------|-------------------|


    G#m                           F#sus4
    Gtr I
    E E  E  E H         +H        E E E E
||--------------------|-------------------|
||o-------------------|-------------------|
||--------------------|-------------------|
||------------4-------|-(4)-----------4---|
||o---2-----2---------|-------------2---2-|
||--4----4------------|-----------2-------|
|
|   Gtr II
|        ~~~~~~~~~~~~~~~~~~~          ~
|   E E +Q    H         +H        E E Q
||--------------------|-------------------|
||o-------------------|-------------------|
||------------8-------|-(8)-----------6---|
||--4s6-(6)-----------|-----------4s6-----|
||o-------------------|-------------------|
||--------------------|-------------------|
|
|   Gtr III
|   PM-------------------------------------
|   E E  E  E E E E E    E  E E E E E E E
||--------------------|-------------------|
||o-------------------|-------------------|
||--4-4--4--4-4-4-4-4-|--4--4-4-4-4-4-4-4-|
||--6-6--6--6-6-6-6-6-|--6--6-6-6-4-4-4-4-|
||o-------------------|-------------------|
||--------------------|-------------------|


  G#m                         F#sus4
  E E E E H         +H        E E E E
|-----------------|--------------------|
|-----------------|--------------------|
|-----------------|--------------------|
|---------4-------|-(4)-----------4----|
|---2---2---------|-------------2---2--|
|-4---4-----------|-----------2--------|
|
|     ~~~~~~~~~~~~~~~~~~          ~
| E E Q   H         +H        E E Q
|-----------------|--------------------|
|-----------------|--------------------|
|---------8-------|-(8)-----------6----|
|-4s6-6-----------|-----------4s6------|
|-----------------|--------------------|
|-----------------|--------------------|
|
|-----------------------------------|
| E E E E E E E E    E  E E E E E E E
|-----------------|--------------------|
|-----------------|--------------------|
|-4-4-4-4-4-4-4-4-|--4--4-4-4-4-4-4-4--|
|-6-6-6-6-6-6-6-6-|--6--6-6-6-4-4-4-4--|
|-----------------|--------------------|
|-----------------|--------------------|


                                       1.
  E5                          F#sus4    E5                          F#sus4
  E E E E H         +H        E E E E   E E E E H         +H        E E E E
|-----------------|-------------------|-----------------|--------------------||
|-----------------|-------------------|-----------------|-------------------o||
|---------4-------|-(4)---------------|---------4-------|-(4)----------------||
|---------4-------|-(4)-----------4---|---------4-------|-(4)-----------4----||
|---2---2---------|-------------2---2-|---2---2---------|-------------2---2-o||
|-0---0-----------|-----------2-------|-0---0-----------|-----------2--------||
|
|     ~~~~~~~~~~~~~~~~~~          ~         ~~~~~~~~~~~~~~~~~~
| E E Q   H         +H        E E Q     E E Q   H         +W
|-----------------|-------------------|-----------------|--------------------||
|-----------------|-------------------|-----------------|-------------------o||
|-6s4-----4-------|-(4)-----------6---|-6s4-----4-------|-(4)----------------||
|-----4---2-------|-(2)-------4s6-----|-----4---2-------|-(2)----------------||
|-----------------|-------------------|-----------------|-------------------o||
|-----------------|-------------------|-----------------|--------------------||
|
| PM----------------------------------------------------------------------|
| E E E E E E E E    E  E E E E E E E   E E E E E E E E    E  E E E E E E E
|-----------------|-------------------|-----------------|--------------------||
|-----------------|-------------------|-----------------|-------------------o||
|-4-4-4-4-4-4-4-4-|--4--4-4-4-4-4-4-4-|-4-4-4-4-4-4-4-4-|--4--4-4-4-4-4-4-4--||
|-2-2-2-2-2-2-2-2-|--2--2-2-2-4-4-4-4-|-2-2-2-2-2-2-2-2-|--2--2-2-2-4-4-4-4--||
|-----------------|-------------------|-----------------|-------------------o||
|-----------------|-------------------|-----------------|--------------------||


  2.
  E5                          F#5
                              Gtr IV
  E E E E H         +H        E E +Q
|-----------------|--------------------||
|-----------------|--------------------||
|---------4-------|-(4)----------------||
|---------4-------|-(4)-------x-4-(4)--||
|---2---2---------|-----------x-4-(4)--||
|-0---0-----------|-----------x-2-(2)--||
|
|                             Gtr V
|     ~~~~~~~~~~~~~~~~~~
| E E Q   H         +H        E E +Q
|-----------------|--------------------||
|-----------------|--------------------||
|-6s4-----4-------|-(4)----------------||
|-----4---2-------|-(2)-------x-4-(4)--||
|-----------------|-----------x-4-(4)--||
|-----------------|-----------x-2-(2)--||
|
| PM------------------------|
| E E E E E E E E    E  E E E H
|-----------------|--------------------||
|-----------------|--------------------||
|-4-4-4-4-4-4-4-4-|--4--4-4-4----------||
|-2-2-2-2-2-2-2-2-|--2--2-2-2----------||
|-----------------|--------------------||
|-----------------|--------------------||


 Pre-Chorus
  Faster Q=172
  $
  $$
  G#5   N.C.                      E5                                F#5
  Gtr IV
  E E E E E E E E   E E E E E E E E   +E  E Q  E E  Q       E  E Q  E E Q
|-----------------|-----------------|--------------------|-----------------|
|-----------------|-----------------|--------------------|-----------------|
|---------6-6-6-6-|-6s8-8-8-8s9-----|--------------------|-----------------|
|-6-6-6---x-x-x-x-|-x---x-x-x-----2-|-(2)-2-2--2-2--2----|--2--2-2--x-4-4--|
|-6-6-6---4-4-4-4-|-4s6-6-6-6s7---2-|-(2)-2-2--2-2--2----|--2--2-2--x-4-4--|
|-4-4-4-----------|---------------0-|-(0)-0-0--0-0--0----|--0--0-0--x-2-2--|
|
| Gtr V
| E E E E E E E E   E E E E E E E E   +E  E H      +E  E   +E  E Q  E E Q
|-----------------|---------------6-|-(6)--------------6-|-(6)---6---------|
|-----------------|---------------7-|-(7)-7------------7-|-(7)-7-7---------|
|---------6-6-6-6-|-6s8-8-8-8s9---8-|-(8)-8-8------(8)-8-|-(8)-8-----------|
|-6-6-6---x-x-x-x-|-x---x-x-x-------|--------------------|----------x-4-4--|
|-6-6-6---4-4-4-4-|-4s6-6-6-6s7-----|--------------------|----------x-4-4--|
|-4-4-4-----------|-----------------|--------------------|----------x-2-2--|


  G#5     G#m       N.C.     B BsusE5                                N.C.
  E E E E E E E E    E E E E E E E E   +E  E Q  E E  Q       E  E Q   H
|-----------------|------------------|--------------------|-----------------||
|-----------------|------------------|--------------------|-----------------||
|---------4-4-4-4-|----6---6-8-9-----|--------------------|-----------------||
|-6-6-6---6-6-6-6-|-/8---8---9-9---2-|-(2)-2-2--2-2--2----|--2--2-2---------||
|-6-6-6-----------|----------------2-|-(2)-2-2--2-2--2----|--2--2-2---------||
|-4-4-4-----------|----------------0-|-(0)-0-0--0-0--0----|--0--0-0--14\----||
|
| E E E E E E E E    E E E E E E E E   +E  E H      +E  E   +E  E Q   H
|-----------------|----------------6-|-(6)--------------6-|-(6)---6---------||
|-----------------|----------------7-|-(7)-7------------7-|-(7)-7-7---------||
|---------4-4-4-4-|----6---6-8-9---8-|-(8)-8-8------(8)-8-|-(8)-8-----------||
|-6-6-6---6-6-6-6-|-/8---8---9-9-----|--------------------|-----------------||
|-6-6-6-----------|------------------|--------------------|-----------------||
|-4-4-4-----------|------------------|--------------------|----------14\----||


 Chorus
  G#5                         F#5 E5                                F#5
  Gtrs IV, V
                                            PM------------------|
  Q  Q  E E E E   +E  E E E E E E E   +E  E E E E E E E   E E E E E E +Q
|---------------|-------------------|-------------------|------------------|
|---------------|-------------------|-------------------|------------------|
|---------------|-------------------|-------------------|------------------|
|-6--6--6-6-6-6-|-(6)-6-6-6-x-4---2-|-(2)-2-------------|---------x-4-(4)--|
|-6--6--6-6-6-6-|-(6)-6-6-6-x-4---2-|-(2)-2-2-2-2-2-2-2-|-2-2-2-2-x-4-(4)--|
|-4--4--4-4-4-4-|-(4)-4-4-4-x-2---0-|-(0)-0-0-0-0-0-0-0-|-0-0-0-0-x-2-(2)--|


  G#5                         F#5 E5                                    F#5
  Gtr IV
  Q  Q  E E E E   +E  E E E E E E E   +E  E E E E E  E  E    E  E E E E E +Q
|---------------|-------------------|---------------------|--------------------|
|---------------|-------------------|---------------------|--------------------|
|---------------|-------------------|---------------------|--------------------|
|-6--6--6-6-6-6-|-(6)-6-6-6-x-4---2-|-(2)-2-2-2-2-2--2--2-|--2--2-2-2-x-4-(4)--|
|-6--6--6-6-6-6-|-(6)-6-6-6-x-4---2-|-(2)-2-2-2-2-2--2--2-|--2--2-2-2-x-4-(4)--|
|-4--4--4-4-4-4-|-(4)-4-4-4-x-2---0-|-(0)-0-0-0-0-0--0--0-|--0--0-0-0-x-2-(2)--|
|
| Gtr V
| Q  Q  E E E E    E  E E E E E E E   +E  E H       +E  E   +E  E Q   E E +Q
|---------------|-----------------6-|-(6)---------------6-|-(6)---6------------|
|---------------|-----------------7-|-(7)-7-------------7-|-(7)-7-7------------|
|-------4-4-4-4-|-----6---6-8-9---8-|-(8)-8-8-------(8)-8-|-(8)-8--------------|
|-6--6--6-6-6-6-|-/8----8---9-9-----|---------------------|-----------x-4-(4)--|
|-6--6----------|-------------------|---------------------|-----------x-4-(4)--|
|-4--4----------|-------------------|---------------------|-----------x-2-(2)--|


  E5            F#5
  Gtrs IV, V
  H    E E Q    H    E E Q
|-------------|-------------||
|-------------|-------------||
|-------------|-------------||
|-2----x-x----|-4----x-x----||
|-2----x-x----|-4----x-x----||
|-0----x-x----|-2----x-x----||


 Bridge
  G#5               E5   F#5      G#5               E5   F#5
  Gtr IV
                    PM-|                            PM-|
  E E H    E E   Q  q  E E +Q     E E H    E E   Q  q  E E +Q
|--------------|----------------|--------------|----------------|
|--------------|----------------|--------------|----------------|
|--------------|----------------|--------------|----------------|
|-6-6------6-6-|---------4-(4)--|-6-6------6-6-|---------4-(4)--|
|-6-6------6-6-|----2--2-4-(4)--|-6-6------6-6-|----2--2-4-(4)--|
|-4-4------4-4-|----0--0-2-(2)--|-4-4------4-4-|----0--0-2-(2)--|
|
| Gtr V
|                   PM-|                            PM-|
| E E H    E E   Q  q  E E +Q     E E H    E E   Q  q  E E +Q
|--------------|----------------|--------------|----------------|
|--------------|----------------|--------------|----------------|
|-4-4------4-4-|---------3-(3)--|-4-4------4-4-|---------3-(3)--|
|-x-x------x-x-|---------x------|-x-x------x-x-|---------x------|
|-2-2------2-2-|----2--2-1-(1)--|-2-2------2-2-|----2--2-1-(1)--|
|--------------|----0--0--------|--------------|----0--0--------|


                                                    To Coda
                                                    To Coda
  E5                     F#5      E5                     F#5
                    PM-|                            PM-|
  E E H    E E   Q  q  E E +Q     E E H    E E   Q  q  E E +Q
|--------------|----------------|--------------|----------------||
|--------------|----------------|--------------|----------------||
|--------------|----------------|--------------|----------------||
|-2-2------2-2-|---------4-(4)--|-2-2------2-2-|---------4-(4)--||
|-2-2------2-2-|----2--2-4-(4)--|-2-2------2-2-|----2--2-4-(4)--||
|-0-0------0-0-|----0--0-2-(2)--|-0-0------0-0-|----0--0-2-(2)--||
|
|                   PM-|                            PM-|
| E E H    E E   Q  q  E E +Q     E E H    E E   Q  q  E E +Q
|--------------|----------------|--------------|----------------||
|--------------|----------------|--------------|----------------||
|-4-4------4-4-|---------3-(3)--|-4-4------4-4-|---------3-(3)--||
|-x-x------x-x-|---------x------|-x-x------x-x-|---------x------||
|-2-2------2-2-|----2--2-1-(1)--|-2-2------2-2-|----2--2-1-(1)--||
|--------------|----0--0--------|--------------|----0--0--------||


 Verse
  G#5                       F#5       G#5                       F#5
  Gtr IV
  PM------------------------------------------------------------------|
  E E E E E E E E   E E E E E E E E   E E E E E E E E   E E E E E E E E
|-----------------|-----------------|-----------------|-----------------|
|-----------------|-----------------|-----------------|-----------------|
|-8-8-8-8-8-8-8-6-|-3-3-3-3-4-4-4-4-|-6-6-6-6-6-6-6-6-|-3-3-3-3-4-4-4-4-|
|-----------------|-----------------|-----------------|-----------------|
|-----------------|-----------------|-----------------|-----------------|
|-----------------|-----------------|-----------------|-----------------|
|
| Gtr III
| PM------------------------------------------------------------------|
| E E E E E E E E   E E E E E E E E   E E E E E E E E   E E E E E E E E
|-----------------|-----------------|-----------------|-----------------|
|-----------------|-----------------|-----------------|-----------------|
|-----------------|-----------------|-----------------|-----------------|
|-----------------|-----------------|-----------------|-----------------|
|-6-6-6-6-6-6-6-6-|-6-6-6-6-4-4-4-4-|-6-6-6-6-6-6-6-6-|-6-6-6-6-4-4-4-4-|
|-4-4-4-4-4-4-4-4-|-4-4-4-4-2-2-2-2-|-4-4-4-4-4-4-4-4-|-4-4-4-4-2-2-2-2-|

[ Tab from: http://www.guitartabs.cc/tabs/h/hawthorne_heights/ohio_is_for_lovers_tab_ver_8.html ]
  E5                          F#5     E5                          F#5
  PM------------------------------------------------------------------|
  E E E E E E E E   E E E E E E E E   E E E E E E E E   E E E E E E E E
|-----------------|-----------------|-----------------|-----------------|
|-----------------|-----------------|-----------------|-----------------|
|-6-6-6-6-8-8-4-4-|-4-4-4-4-4-4-4-4-|-6-6-6-8-8-8-4-4-|-4-4-4-4-4-4-4-4-|
|-----------------|-----------------|-----------------|-----------------|
|-----------------|-----------------|-----------------|-----------------|
|-----------------|-----------------|-----------------|-----------------|
|
| PM------------------------------------------------------------------|
| E E E E E E E E   E E E E E E E E   E E E E E E E E   E E E E E E E E
|-----------------|-----------------|-----------------|-----------------|
|-----------------|-----------------|-----------------|-----------------|
|-----------------|-----------------|-----------------|-----------------|
|-----------------|-----------------|-----------------|-----------------|
|-2-2-2-2-2-2-2-2-|-2-2-2-2-2-4-4-4-|-2-2-2-2-2-2-2-2-|-2-2-2-2-2-4-4-4-|
|-0-0-0-0-0-0-0-0-|-0-0-0-0-0-2-2-2-|-0-0-0-0-0-0-0-0-|-0-0-0-0-0-2-2-2-|


  G#5                             F#5
  Gtr III
  E  E  E E E E E E    E  E  E  E  E  E  E  E
  |  |  | | | | | |    |  |  |  |  |  |  |  |
  /  /  / / / / / /    /  /  /  /  /  /  /  /

  Gtr IV
  PM-------------------------------------------
  E  E  E E E E E E    E  E  E  E  E  E  E  E
|-------------------|-------------------------|
|-------------------|-------------------------|
|-8--8--8-8-8-8-8-6-|--3--3--3--3--4--4--4--4-|
|-------------------|-------------------------|
|-------------------|-------------------------|
|-------------------|-------------------------|
|
| Gtr V
| E  E  E E E E Q      H           E  E  E  E
|-------------------|-------------------------|
|-------------------|-------------------------|
|-6s=8--8-8-8-------|--------------6--6--6--6-|
|-6-(6)-6-6-6-------|--------------6--6--6--6-|
|-------------------|-------------------------|
|-------------------|-------------------------|
|
| Gtr II
| PM-------------------------------------------
| E  E  E E E E E E    E  E  E  E  E  E  E  E
|-------------------|-------------------------|
|-9--9--9-9-9-9-9-9-|-11-11-11-11-12-12-12-12-|
|-------------------|-------------------------|
|-------------------|-------------------------|
|-------------------|-------------------------|
|-------------------|-------------------------|


  G#5                             F#5
  E  E  E E E E E E    E  E  E  E  E  E  E  E
  |  |  | | | | | |    |  |  |  |  |  |  |  |
  /  /  / / / / / /    /  /  /  /  /  /  /  /

 ------------------------------------------|
  E  E  E E E E E E    E  E  E  E  E  E  E  E
|-------------------|-------------------------|
|-------------------|-------------------------|
|-6--6--6-6-6-6-6-6-|--3--3--3--3--4--4--4--4-|
|-------------------|-------------------------|
|-------------------|-------------------------|
|-------------------|-------------------------|
|
| E  E  E E E E Q      H           E  E  E  E
|-------------------|-------------------------|
|-------------------|-------------------------|
|-6s=8--8-8-8-------|--------------6--6--6--6-|
|-6-(6)-6-6-6-------|--------------6--6--6--6-|
|-------------------|-------------------------|
|-------------------|-------------------------|
|
|------------------------------------------|
| E  E  E E E E E E    E  E  E  E  E  E  E  E
|-------------------|-------------------------|
|-9--9--9-9-9-9-9-9-|-11-11-11-11-12-12-12-12-|
|-------------------|-------------------------|
|-------------------|-------------------------|
|-------------------|-------------------------|
|-------------------|-------------------------|


  E5                                 F#5
   E  E  E  E  E  E  E E   E E E E E E E E
   |  |  |  |  |  |  | |   | | | | | | | |
   /  /  /  /  /  /  / /   / / / / / / / /

   PM---------------------------------------
   E  E  E  E  E  E  E E   E E E E E E E E
|------------------------|-----------------|
|------------------------|-----------------|
|--6--6--6--6--8--8--4-4-|-4-4-4-4-4-4-4-4-|
|------------------------|-----------------|
|------------------------|-----------------|
|------------------------|-----------------|
|
|  E  E  E  E  E  E  Q     H       E E E E
|------------------------|-----------------|
|------------------------|-----------------|
|--6s=4--4--4--4---------|---------6-6-6-6-|
|--6s=4--4--4--4---------|---------6-6-6-6-|
|------------------------|-----------------|
|------------------------|-----------------|
|
|  PM---------------------------------------
|  E  E  E  E  E  E  E E   E E E E E E E E
|------------------------|-----------------|
|-12-12-12-12-11-11-11-9-|-9-9-9-9-9-9-9-9-|
|------------------------|-----------------|
|------------------------|-----------------|
|------------------------|-----------------|
|------------------------|-----------------|


                               D.S. al Coda
  E5                               F#5
   E  E  E  E  E  E  E E   E E E E H
   |  |  |  |  |  |  | |   | | | |
   /  /  /  /  /  /  / /   / / / /

 --------------------------------|
   E  E  E  E  E  E  E E   E E E E E E +Q
|------------------------|-------------------||
|------------------------|-------------------||
|--6--6--6--8--8--8--4-4-|-4-4-4-4-----------||
|------------------------|---------x-4-(4)---||
|------------------------|---------x-4-(4)---||
|------------------------|---------x-2-(2)---||
|
|  E  E  E  E  E  E  Q     H       E E +Q
|------------------------|-------------------||
|------------------------|-------------------||
|--6s=4--4--4--4---------|-------------------||
|--6s=4--4--4--4---------|---------x-4-(4)---||
|------------------------|---------x-4-(4)---||
|------------------------|---------x-2-(2)---||
|
|------------------------------------------|
|  E  E  E  E  E  E  E E   E E E E E E  E  E
|------------------------|-------------------||
|-12-12-12-12-11-11-11-9-|-9-9-9-9-9-9--9--9-||
|------------------------|-------------------||
|------------------------|-------------------||
|------------------------|-------------------||
|------------------------|-------------------||


  &
  G#5                           E5       F#5
  Gtr IV
                                 PM---|
  E E  H           E  E    Q     q     E  E +Q
|-----------------------|-------------------------|
|-----------------------|-------------------------|
|-----------------------|-------------------------|
|-6-6--------------6--6-|-----------------4-(4)---|
|-6-6--------------6--6-|--------2-----2--4-(4)---|
|-4-4--------------4--4-|--------0-----0--2-(2)---|
|
| Gtr V
|                                PM---|
| E E  H           E  E    Q     q     E  E +Q
|-----------------------|-------------------------|
|-----------------------|-------------------------|
|-4-4--------------4--4-|-----------------3-(3)---|
|-x-x--------------x--x-|-----------------x-------|
|-2-2--------------2--2-|--------2-----2--1-(1)---|
|-----------------------|--------0-----0----------|
|
| Gtr VI
| Q    E  E  E  E  E  E    E  E  E  E  E  E  E  E
|-----------------------|-------------------------|
|-----12p11-12p11-------|-14p11-12p11-12p11-------|
|-----------------13p11-|-------------------13p11-|
|-----------------------|-------------------------|
|-----------------------|-------------------------|
|-----------------------|-------------------------|


  G#5                           E5       F#5
                                 PM---|
  E E  H           E  E    Q     q     E  E +Q
|-----------------------|-------------------------|
|-----------------------|-------------------------|
|-----------------------|-------------------------|
|-6-6--------------6--6-|-----------------4-(4)---|
|-6-6--------------6--6-|--------2-----2--4-(4)---|
|-4-4--------------4--4-|--------0-----0--2-(2)---|
|
|                                PM---|
| E E  H           E  E    Q     q     E  E +Q
|-----------------------|-------------------------|
|-----------------------|-------------------------|
|-4-4--------------4--4-|-----------------3-(3)---|
|-x-x--------------x--x-|-----------------x-------|
|-2-2--------------2--2-|--------2-----2--1-(1)---|
|-----------------------|--------0-----0----------|
|
| Q    E  E  E  E  E  E    E  E  E  E  E  E  E  E
|-----------------------|-------------------------|
|-----12p11-12p11-------|-14p11-12p11-12p11-------|
|-----------------13p11-|-------------------13p11-|
|-----------------------|-------------------------|
|-----------------------|-------------------------|
|-----------------------|-------------------------|


  E5                                     F#5
                                 PM---|
  E E  H           E  E    Q     q     E  E +Q
|-----------------------|-------------------------|
|-----------------------|-------------------------|
|-----------------------|-------------------------|
|-2-2--------------2--2-|-----------------4-(4)---|
|-2-2--------------2--2-|--------2-----2--4-(4)---|
|-0-0--------------0--0-|--------0-----0--2-(2)---|
|
|                                PM---|
| E E  H           E  E    Q     q     E  E +Q
|-----------------------|-------------------------|
|-----------------------|-------------------------|
|-4-4--------------4--4-|-----------------3-(3)---|
|-x-x--------------x--x-|-----------------x-------|
|-2-2--------------2--2-|--------2-----2--1-(1)---|
|-----------------------|--------0-----0----------|
|
| Q    E  E  E  E  E  E    E  E  E  E  E  E  E  E
|-----------------------|-------------------------|
|-----12p11-12p11-------|-14p11-12p11-12p11-------|
|-----------------13p11-|-------------------13p11-|
|-----------------------|-------------------------|
|-----------------------|-------------------------|
|-----------------------|-------------------------|


  E5                                      F#5
                                  PM---|
   E  E  H           E E    Q     q     E E +Q
|------------------------|------------------------||
|------------------------|------------------------||
|------------------------|------------------------||
|--2--2--------------2-2-|----------------4-(4)---||
|--2--2--------------2-2-|--------2-----2-4-(4)---||
|--0--0--------------0-0-|--------0-----0-2-(2)---||
|
|                                 PM---|
|  E  E  H           E E    Q     q     E E +Q
|------------------------|------------------------||
|------------------------|------------------------||
|--4--4--------------4-4-|----------------3-(3)---||
|--x--x--------------x-x-|----------------x-------||
|--2--2--------------2-2-|--------2-----2-1-(1)---||
|------------------------|--------0-----0---------||
|
|  E  E  E  E  E  E  E E    E  E  E  E  E E  E  E
|------------------------|------------------------||
|-14-14-12p11-------14---|-12p11-------14---12p11-||
|-------------13p11------|-------13p11------------||
|------------------------|------------------------||
|------------------------|------------------------||
|------------------------|------------------------||


   Interlude
    N.C.
    Gtr I
    H.      Q    +H     H      H.      Q    +H     H
||-------------|-------------|------------|-------------|
||o------------|-------------|------------|-------------|
||----------4--|-(4)---------|---------4--|-(4)---------|
||----------4--|-(4)---------|---------4--|-(4)---------|
||o------------|-------------|------------|-------------|
||--4----------|--------2----|-4----------|--------2----|


                            1.
  N.C.
  H.      Q    +H     H      H.      Q    +H     H
|------------|-------------|------------|--------------||
|------------|-------------|------------|-------------o||
|---------4--|-(4)---------|---------4--|-(4)----------||
|---------4--|-(4)---------|---------4--|-(4)----------||
|------------|-------------|------------|-------------o||
|-0----------|--------2----|-0----------|--------2-----||


  2.
       D.S.S. al Dbl. Coda
  N.C.                  F#5
                      Gtrs IV, V
  H.      Q    +H     E E +Q
|------------|-----------------||
|------------|-----------------||
|---------4--|-(4)-------------||
|---------4--|-(4)----x-4-(4)--||
|------------|--------x-4-(4)--||
|-0----------|--------x-2-(2)--||


   Outro
    &&
    G#5                           E5       F#5
    Gtr IV
                                   PM---|
    E E  H           E  E    Q     q     E  E +Q
||------------------------|-------------------------|
||o-----------------------|-------------------------|
||------------------------|-------------------------|
||--6-6--------------6--6-|-----------------4-(4)---|
||o-6-6--------------6--6-|--------2-----2--4-(4)---|
||--4-4--------------4--4-|--------0-----0--2-(2)---|
|
|   Gtr V
|                                  PM---|
|   E E  H           E  E    Q     q     E  E +Q
||------------------------|-------------------------|
||o-----------------------|-------------------------|
||--4-4--------------4--4-|-----------------3-(3)---|
||--x-x--------------x--x-|-----------------x-------|
||o-2-2--------------2--2-|--------2-----2--1-(1)---|
||------------------------|--------0-----0----------|
|
|   Gtr VI
|   Q    E  E  E  E  E  E    E  E  E  E  E  E  E  E
||------------------------|-------------------------|
||o-----12p11-12p11-------|-14p11-12p11-12p11-------|
||------------------13p11-|-------------------13p11-|
||------------------------|-------------------------|
||o-----------------------|-------------------------|
||------------------------|-------------------------|


  G#5                           E5       F#5
                                 PM---|
  E E  H           E  E    Q     q     E  E +Q
|-----------------------|--------------------------|
|-----------------------|--------------------------|
|-----------------------|--------------------------|
|-6-6--------------6--6-|-----------------4-(4)----|
|-6-6--------------6--6-|--------2-----2--4-(4)----|
|-4-4--------------4--4-|--------0-----0--2-(2)----|
|
|                                PM---|
| E E  H           E  E    Q     q     E  E +Q
|-----------------------|--------------------------|
|-----------------------|--------------------------|
|-4-4--------------4--4-|-----------------3-(3)----|
|-x-x--------------x--x-|-----------------x--------|
|-2-2--------------2--2-|--------2-----2--1-(1)----|
|-----------------------|--------0-----0-----------|
|
| Q    E  E  E  E  E  E    E  E  E  E  E  E  E  E
|-----------------------|--------------------------|
|-----12p11-12p11-------|-14p11-12p11-12p11--------|
|-----------------13p11-|-------------------13p11--|
|-----------------------|--------------------------|
|-----------------------|--------------------------|
|-----------------------|--------------------------|


  E5                                     F#5
                                 PM---|
  E E  H           E  E    Q     q     E  E +Q
|-----------------------|-------------------------|
|-----------------------|-------------------------|
|-----------------------|-------------------------|
|-2-2--------------2--2-|-----------------4-(4)---|
|-2-2--------------2--2-|--------2-----2--4-(4)---|
|-0-0--------------0--0-|--------0-----0--2-(2)---|
|
|                                PM---|
| E E  H           E  E    Q     q     E  E +Q
|-----------------------|-------------------------|
|-----------------------|-------------------------|
|-4-4--------------4--4-|-----------------3-(3)---|
|-x-x--------------x--x-|-----------------x-------|
|-2-2--------------2--2-|--------2-----2--1-(1)---|
|-----------------------|--------0-----0----------|
|
| Q    E  E  E  E  E  E    E  E  E  E  E  E  E  E
|-----------------------|-------------------------|
|-----12p11-12p11-------|-14p11-12p11-12p11-------|
|-----------------13p11-|-------------------13p11-|
|-----------------------|-------------------------|
|-----------------------|-------------------------|
|-----------------------|-------------------------|


  E5                                      F#5
                                  PM---|
   E  E  H           E E    Q     q     E E +Q     3x
|------------------------|-------------------------||
|------------------------|------------------------o||
|------------------------|-------------------------||
|--2--2--------------2-2-|----------------4-(4)----||
|--2--2--------------2-2-|--------2-----2-4-(4)---o||
|--0--0--------------0-0-|--------0-----0-2-(2)----||
|
|                                 PM---|
|  E  E  H           E E    Q     q     E E +Q     3x
|------------------------|-------------------------||
|------------------------|------------------------o||
|--4--4--------------4-4-|----------------3-(3)----||
|--x--x--------------x-x-|----------------x--------||
|--2--2--------------2-2-|--------2-----2-1-(1)---o||
|------------------------|--------0-----0----------||
|
|  E  E  E  E  E  E  E E    E  E  E  E  E E  E  E  3x
|------------------------|-------------------------||
|-14-14-12p11-------14---|-12p11-------14---12p11-o||
|-------------13p11------|-------13p11-------------||
|------------------------|-------------------------||
|------------------------|------------------------o||
|------------------------|-------------------------||


Duration Legend
---------------
W - whole; H - half; Q - quarter; E - 8th; S - 16th; T - 32nd; X - 64th; a - acciaccatura
+ - note tied to previous; . - note dotted; .. - note double dotted
Uncapitalized letters represent notes that are staccato (1/2 duration)
Irregular groupings are notated above the duration line
Duration letters will always appear directly above the note/fret number it represents the
duration for.  Duration letters with no fret number below them represent rests.  Multi-
bar rests are notated in the form Wxn, where n is the number of bars to rest for.  Low
melody durations appear below the staff

Tablature Legend
----------------
 h   - hammer-on
 p   - pull-off
 b   - bend
 pb  - pre-bend
 r   - bend release (if no number after the r, then release immediately)
 /\  - slide into or out of (from/to "nowhere")
 s   - legato slide
 S   - shift slide
  - natural harmonic
[n]  - artificial harmonic
n(n) - tapped harmonic
 ~   - vibrato
 tr  - trill
 T   - tap
 TP  - trem. picking
 PM  - palm muting
\n/  - tremolo bar dip; n = amount to dip
 \n  - tremolo bar down
 n/  - tremolo bar up
/n\  - tremolo bar inverted dip
 =   - hold bend; also acts as connecting device for hammers/pulls
 <>  - volume swell (louder/softer)
 x   - on rhythm slash represents muted slash
 o   - on rhythm slash represents single note slash

Misc Legend
-----------
 |  - bar
||  - double bar
||o - repeat start
o|| - repeat end
*|  - double bar (ending)
 :  - bar (freetime)
 $  - Segno
 &  - Coda
Tempo markers -  = BPM(8/16=s8/s16), where s8 = swing 8ths, s16 = swing 16ths
Comments