Hawthorne Heights - Ohio Is For Lovers Chords & Tabs

 

Ohio Is For Lovers Chords & Tabs

Hawthorne Heights Chords & Tabs

Version: 5 Type: Tab 0 ratings
1 star 2 stars 3 stars 4 stars 5 stars
comments

Ohio Is For Lovers Tab

Hawthorne Heights------Ohio Is For Lovers
TABED BY: Ethan Hartzell (Save Yourself - for life..we'll be famous)
--------------------------INTRO----------------------

* = p.m
GUITAR 1 (rhythem)
e|----------------------------------------------------|
b|----------------------------------------------------|
g|----------------------------------------------- x 2-|
d|----------------4----------4------------------------|
a|---------2----2---------2---2-----------------------|
e|------4---4----------4------------------------------|
                                                           X 4
e|----------------------------------------------------|
b|----------------------------------------------------|
g|----------------------------------------------- x 2-|
d|----------------4----------4------------------------|
a|---------2----2---------2---2-----------------------|
e|------0-----0---------0-----------------------------|

GUITAR 2 (lead) comes in after rythem plays 2 times

e|------------------------------------|
b|------------------------------------|
g|-------------8------6---------------|
d|------5h6-----5h6-------------- x 2-|
a|------------------------------------|
e|------------------------------------|
                                                           X2
e|------------------------------------|
b|------------------------------------|
g|-------6p4--4---6p4-----------------|
d|------------------------------- x 2-|
a|------------------------------------|
e|------------------------------------|

=================================================================
guitar 1 pre chorus
e|------------------------------------------------------------------------|
b|------------------------------------------------------------------------|
g|------------666666888888------------------------------------------------|
d|---4-6-6----xxxxxxxxxxxx------------------------------------------------|x2
a|---4-6-6----444444666666---22222222222222-------------------------------|
e|---2-4-4------------------ 00000000000000-------------------------------|

----------chorus--------

e|-----------------------------------------------------------------------------|
b|-----------------------------------------------------------------------------|
g|-----------------------------------------------------------------------------|
d|----6666666--4--22-22222222--4------------------------------------------ x 2-|
a|----6666666--4--22-22222222--4-----------------------------------------------|
e|----4444444--2--00-00000000--2-----------------------------------------------|
                     ********
e|--------------------------------------------------------------------------------------|
b|--------------------------------------------------------------------------------------|
g|--------------------------------------------------------------------------------------|
d|----66--44------66-66-66-6-66-66-66-6---------22-22-22-4-22-22-22-4-------------------|
a|----66--44------66-66-66-6-66-66-66-6---------22-22-22-4-22-22-22-4-------------------|
e|----44--22------44-44-44-4-44-44-44-4---------00-00-00-2-00-00-00-2-------------------|
                        **         **                 **         **
---VERSE------------------------------------------------------------------------|
e|------------------------------------------------------------------------------|
a|------------------------------------------------------------------------------|
g|------------------------------------------------------------------------------|x2
d|----6666666666666666--44-666666666666666-44--22222222222222-22-0000000000000--|
a|----6666666666666666--44-666666666666666-44--22222222222222-22-0000000000000--|
e|----4444444444444444--22-444444444444444-22--00000000000000-22-0000000000000--|
      ****************  **  ************** **   ************* **  ************

--------------PRE chous--------------
[ Tab from: http://www.guitartabs.cc/tabs/h/hawthorne_heights/ohio_is_for_lovers_tab_ver_5.html ]
e|--------------------------------------------------|
b|--------------------------------------------------|
g|------------666666888888--------------------------|
d|---4-6-6----xxxxxxxxxxxx--------------------------|x2
a|---4-6-6----444444666666---22222222222222---------|
e|---2-4-4-------------------00000000000000---------|

----------chorus--------

e|------------------------------------------------------------------|
b|------------------------------------------------------------------|
g|------------------------------------------------------------------|
d|----6666666--4--22-22222222--4--------------------------------x 2-|
a|----6666666--4--22-22222222--4------------------------------------|
e|----4444444--2--00-00000000--2------------------------------------|
                     ********
e|-------------------------------------------------------------------------------------|
b|-------------------------------------------------------------------------------------|
g|-------------------------------------------------------------------------------------|
d|----66-xx-44-xx-----66-66-66-6-66-66-66-6---------22-22-22-4-22-22-22-4--------- x 2-|
a|----66-xx-44-xx-----66-66-66-6-66-66-66-6---------22-22-22-4-22-22-22-4--------------|
e|----44-xx-22-xx-----44-44-44-4-44-44-44-4---------00-00-00-2-00-00-00-2--------------|
                            **         **                 **         **
-------verse/outro-----

e|-------------------------------------------------------------|
b|-------------------------------------------------------------|
g|---------4-----------4---------------4-----4-----------------|
d|---------4-----------4---------------4-----4------------ x 2-|
a|-------------------------------------------------------------|
e|------4-----2----4----------2----0-----0---------------------|

--------------PRE chous--------------

e|--------------------------------------------------------|
b|--------------------------------------------------------|
g|------------666666888888--------------------------------|
d|---4-6-6----xxxxxxxxxxxx--------------------------------|x2
a|---4-6-6----444444666666---22222222222222---------------|
e|---2-4-4-------------------00000000000000---------------|

----------chorus--------

e|---------------------------------------------------------------------------|
b|---------------------------------------------------------------------------|
g|---------------------------------------------------------------------------|
d|----6666666--4--22-22222222--4--------------------------------- x 2--------|
a|----6666666--4--22-22222222--4---------------------------------------------|
e|----4444444--2--00-00000000--2---------------------------------------------|
                     ********
e|-----------------------------------------------------------------------------------------|
b|-----------------------------------------------------------------------------------------|
g|-----------------------------------------------------------------------------------------|
d|----66-xx-44-xx-----66-66-66-6-66-66-66-6---------22-22-22-4-22-22-22-4------------ x 2--|
a|----66-xx-44-xx-----66-66-66-6-66-66-66-6---------22-22-22-4-22-22-22-4------------------|
e|----44-xx-22-xx-----44-44-44-4-44-44-44-4---------00-00-00-2-00-00-00-2------------------|
                            **         **                 **         **

GUITAR 2
FOR CHORUS PLAY during the second time he plays it (just listen and you'll figure it out)

e|-7p6-7p6---7p6-7p6---7p6--9---------------------------------------------|
b|--------------7-------------7-------------------------------------------|
g|------------------------------------------------------------------- x 2-|
d|------------------------------------------------------------------------|
a|------------------------------------------------------------------------|
e|------------------------------------------------------------------------|

I'm alomost 100% sure that this is right...so good luck
Comments