Hawthorne Heights - Ohio Is For Lovers Acoustic Chords & Tabs

 

Ohio Is For Lovers Acoustic Chords & Tabs

Hawthorne Heights Chords & Tabs

Version: 2 Type: Tab

Ohio Is For Lovers Acoustic Tab

   
Band: 	   Hawthorne Heights
Song:      Ohio is for Lovers (Acoustic)
Tabbed By: Paul Morgan (emorphous@hotmail.com)

Standard Tuning (e-bm-G-D-A-E)

The version I have sounds like it is a little out of tune.  I made absolutely sure my
guitar was in turn, but I still had to drop my strings down just a little to play with
the music.  His G-string might also be a little out of tune with the rest of the guitar,
but it’s not very noticeable.  That’s only important if you want to play with the music
though ;). The Pre-Chorus & Chorus is played the same way through the song, only the
Verses change slightly.

Intro / Verse

|--------------------------------|
|---------0------------------0---|
|---------4------------------4---|
|-------4-4--------4-------4-4---|
|-----2----------2-------2-------|
|-2h4----------2-----2h4---------|
  “Hey there....”

|---------------------------------------------|
|---------------0-----------------0-----------|
|---------------4-----------------4-----------|
|-----4---------4--------4--------4-------4---| x 4
|---2-----------2------2----------2-----2-----|
|-2-------2p0-0------2------2p0-0-----2-------|


Pre-Chorus

|------------------------------------------------------|
|------------------4---------6---------7---------------|
|----------------4---------6---------8-----------------|
|-2--4--6-6-6--6-----6-6/8-----8-8/9-----2-2-x-2-x-2---| x 2
|-2--4--6-6-6-(6)-------(8)-------(9)----2-2-x-2-x-2---|
|-0--2--4-4-4-(4)-------(6)-------(7)----0-0-x-0-x-0---|
          “ And I can’t make it on my own....”

Chorus

|----------------------------------------------|
|----------------------------------------------|
|----------------------------------------------|
|------6--6--6-6-6-6--4-4--2-2-x-x-2-x-x-2-2---|
|------6--6--6-6-6-6--4-4--2-2-x-x-2-x-x-2-2---|
|-12/3-4--4--4-4-4-4--2-2--0-0-x-x-0-x-x-0-0---|
        “ So cut my wrists and black my eyes....”

|-----------------------------------------------------------|
|------------------4---------6---------7--------------------|
|----------------4---------6---------8----------------------|
|-2--4--6-6-6--6-----6-6/8-----8-8/9-----2-2-x-2-x-2--4-4---|
|-2--4--6-6-6-(6)-------(8)-------(9)----2-2-x-2-x-2--4-4---|
|-0--2--4-4-4-(4)-------(6)-------(7)----0-0-x-0-x-0--2-2---|
         “ So I can fall asleep tonight... or die...”

|---------------------|
|---------------------|
|---------------------|
|-2--2---------4--4---|
|-2--2---------4--4---|
|-0--0---------2--2---|
  “Because you kill me....”

|-------------------------------------------------------|
|-------------------------------------------------------|
|-------------------------------------------------------|
|--6-6--x--6-6--x-x--4-4--x--6-6--x--6-6--x-x--4-4--x---|
|--6-6--x--6-6--x-x--4-4--x--6-6--x--6-6--x-x--4-4--x---|
|--4-4--x--4-4--x-x--2-2--x--4-4--x--4-4--x-x--2-2--x---|
     “You know you do, you kill me well...”

|----------------------------------------------------|
|----------------------------------------------------|
|----------------------------------------------------|
|--2-2--x--2-2--x-x--4-4--x--2-2--x--2-2--x-x--4-4---|
|--2-2--x--2-2--x-x--4-4--x--2-2--x--2-2--x-x--4-4---|
|--0-0--x--0-0--x-x--2-2--x--0-0--x--0-0--x-x--2-2---|
     “You never stop until....”

Verse 2 (Palm Mute whole original verse)

|-----------------------------------------------------------|
|--0-0-0-0--0-0--0-0-0-0--0-0--0-0-0-0--0-0--0-0-0-0--0-0---|
|--4-4-4-4--4-4--4-4-4-4--4-4--4-4-4-4--4-4--4-4-4-4--4-4---|
|--4-4-4-4--4-4--4-4-4-4--4-4--4-4-4-4--4-4--4-4-4-4--4-4---| x 2
|--2-2-2-2--2-2--2-2-2-2--2-2--2-2-2-2--2-2--2-2-2-2--2-2---|
|--4-4-4-4--2-2--4-4-4-4--2-2--0-0-0-0--2-2--0-0-0-0--2-2---|
   x x x x  x x  x x x x  x x  x x x x  x x  x x x x  x x
  “Spare me now, three last words...”

Pre-Chorus

|------------------------------------------------------|
|------------------4---------6---------7---------------|
|----------------4---------6---------8-----------------|
|-2--4--6-6-6--6-----6-6/8-----8-8/9-----2-2-x-2-x-2---| x 2
|-2--4--6-6-6-(6)-------(8)-------(9)----2-2-x-2-x-2---|
|-0--2--4-4-4-(4)-------(6)-------(7)----0-0-x-0-x-0---|
          “ And I can’t make it on my own....”

Chorus

|----------------------------------------------|
|----------------------------------------------|
|----------------------------------------------|
|------6--6--6-6-6-6--4-4--2-2-x-x-2-x-x-2-2---|
|------6--6--6-6-6-6--4-4--2-2-x-x-2-x-x-2-2---|
|-12/3-4--4--4-4-4-4--2-2--0-0-x-x-0-x-x-0-0---|
        “ So cut my wrists and black my eyes....”

|-----------------------------------------------------------|
|------------------4---------6---------7--------------------|
|----------------4---------6---------8----------------------|
|-2--4--6-6-6--6-----6-6/8-----8-8/9-----2-2-x-2-x-2--4-4---|
|-2--4--6-6-6-(6)-------(8)-------(9)----2-2-x-2-x-2--4-4---|
|-0--2--4-4-4-(4)-------(6)-------(7)----0-0-x-0-x-0--2-2---|
         “ So I can fall asleep tonight... or die...”
[ Tab from: http://www.guitartabs.cc/tabs/h/hawthorne_heights/ohio_is_for_lovers_acoustic_tab_ver_2.html ]
|--------------------------|
|--------------------------|
|--------------------------|
|-2--2--x-x----4--4--x-x---|
|-2--2--x-x----4--4--x-x---|
|-0--0--x-x----2--2--x-x---|
  “Because you kill me....”

|-------------------------------------------------------|
|-------------------------------------------------------|
|-------------------------------------------------------|
|--6-6--x--6-6--x-x--4-4--x--6-6--x--6-6--x-x--4-4--x---|
|--6-6--x--6-6--x-x--4-4--x--6-6--x--6-6--x-x--4-4--x---|
|--4-4--x--4-4--x-x--2-2--x--4-4--x--4-4--x-x--2-2--x---|
     “You know you do, you kill me well...”

|----------------------------------------------------|
|----------------------------------------------------|
|----------------------------------------------------|
|--2-2--x--2-2--x-x--4-4--x--2-2--x--2-2--x-x--4-4---|
|--2-2--x--2-2--x-x--4-4--x--2-2--x--2-2--x-x--4-4---|
|--0-0--x--0-0--x-x--2-2--x--0-0--x--0-0--x-x--2-2---|
     “You never stop until....”

|-------------------------------------------------------|
|-------------------------------------------------------|
|-------------------------------------------------------|
|--6-6--x--6-6--x-x--4-4--x--6-6--x--6-6--x-x--4-4--x---|
|--6-6--x--6-6--x-x--4-4--x--6-6--x--6-6--x-x--4-4--x---|
|--4-4--x--4-4--x-x--2-2--x--4-4--x--4-4--x-x--2-2--x---|
     “You know you do, you kill me well...”

|----------------------------------------------------|
|----------------------------------------------------|
|----------------------------------------------------|
|--2-2--x--2-2--x-x--4-4--x--2-2--x--2-2--x-x--4-4---|
|--2-2--x--2-2--x-x--4-4--x--2-2--x--2-2--x-x--4-4---|
|--0-0--x--0-0--x-x--2-2--x--0-0--x--0-0--x-x--2-2---|
     “You never stop until....”

Verse (finger pick)

|--------------------------------|
|---------0------------------0---|
|---------4------------------4---|
|-------4-4--------4-------4-4---|
|-----2----------2-------2-------|
|-2h4----------2-----2h4---------|

|---------------------------------------------|
|---------------0-----------------0-----------|
|---------------4-----------------4-----------|
|-----4---------4--------4--------4-------4---| x 2
|---2-----------2------2----------2-----2-----|
|-2-------2p0-0------2------2p0-0-----2-------|

Pre-Chorus

|------------------------------------------------------|
|------------------4---------6---------7---------------|
|----------------4---------6---------8-----------------|
|-2--4--6-6-6--6-----6-6/8-----8-8/9-----2-2-x-2-x-2---| x 2
|-2--4--6-6-6-(6)-------(8)-------(9)----2-2-x-2-x-2---|
|-0--2--4-4-4-(4)-------(6)-------(7)----0-0-x-0-x-0---|
          “ And I can’t make it on my own....”

Chorus

|----------------------------------------------|
|----------------------------------------------|
|----------------------------------------------|
|------6--6--6-6-6-6--4-4--2-2-x-x-2-x-x-2-2---|
|------6--6--6-6-6-6--4-4--2-2-x-x-2-x-x-2-2---|
|-12/3-4--4--4-4-4-4--2-2--0-0-x-x-0-x-x-0-0---|
        “ So cut my wrists and black my eyes....”

|-----------------------------------------------------------|
|------------------4---------6---------7--------------------|
|----------------4---------6---------8----------------------|
|-2--4--6-6-6--6-----6-6/8-----8-8/9-----2-2-x-2-x-2--4-4---|
|-2--4--6-6-6-(6)-------(8)-------(9)----2-2-x-2-x-2--4-4---|
|-0--2--4-4-4-(4)-------(6)-------(7)----0-0-x-0-x-0--2-2---|
         “ So I can fall asleep tonight... or die...”

|--------------------------|
|--------------------------|
|--------------------------|
|-2--2--x-x----4--4--x-x---|
|-2--2--x-x----4--4--x-x---|
|-0--0--x-x----2--2--x-x---|
  “Because you kill me....”

|-------------------------------------------------------|
|-------------------------------------------------------|
|-------------------------------------------------------|
|--6-6--x--6-6--x-x--4-4--x--6-6--x--6-6--x-x--4-4--x---|
|--6-6--x--6-6--x-x--4-4--x--6-6--x--6-6--x-x--4-4--x---|
|--4-4--x--4-4--x-x--2-2--x--4-4--x--4-4--x-x--2-2--x---|
     “You know you do, you kill me well...”

|----------------------------------------------------|
|----------------------------------------------------|
|----------------------------------------------------|
|--2-2--x--2-2--x-x--4-4--x--2-2--x--2-2--x-x--4-4---|
|--2-2--x--2-2--x-x--4-4--x--2-2--x--2-2--x-x--4-4---|
|--0-0--x--0-0--x-x--2-2--x--0-0--x--0-0--x-x--2-2---|
     “You never stop until....”

|-------------------------------------------------------|
|-------------------------------------------------------|
|-------------------------------------------------------|
|--6-6--x--6-6--x-x--4-4--x--6-6--x--6-6--x-x--4-4--x---|
|--6-6--x--6-6--x-x--4-4--x--6-6--x--6-6--x-x--4-4--x---|
|--4-4--x--4-4--x-x--2-2--x--4-4--x--4-4--x-x--2-2--x---|
     “You know you do, you kill me well...”

|----------------------------------------------------------|
|----------------------------------------------------------|
|----------------------------------------------------------|
|--2-2--x--2-2--x-x--4-4--x--2-2--x--2-2--x-x--4-4---6-6---|
|--2-2--x--2-2--x-x--4-4--x--2-2--x--2-2--x-x--4-4---6-6---|
|--0-0--x--0-0--x-x--2-2--x--0-0--x--0-0--x-x--2-2---4-4---|
     “You never stop until....”			       ^-- end hard.

Comments or questions, please e-mail: emorphous@hotmail.com