Hawthorne Heights - Niki Fm Chords & Tabs

 

Niki Fm Chords & Tabs

Hawthorne Heights Chords & Tabs

Version: 6 Type: Tab 0 ratings
1 star 2 stars 3 stars 4 stars 5 stars
comments

Niki Fm Tab

-------------------------------------------------------------------------------
			     NIKI FM - Hawthorne Heights
-------------------------------------------------------------------------------
Here is the whole song.  I think its pretty much right about 90%.  There were a
few parts that I couldnt get though.  Its all in order and the strumming is all
how it is in the tab Email:cowsgomo00o@yahoo.com

e|--------------------------------------------|
B|--------------------------------------------|
G|-2--3--5--2--3---- x2 ----7--2--3--- x1 ----|
D|-3--5--7--3--5------------7--2--3-----------|
A|--------------------------5--0--1-----------|
E|--------------------------------------------|

e|---------0-1-0-----------0-1-0-----------0-1-0-----------0-1-0-----------------|
B|-------3-------1-------3-------1-------3-------1-------3-----------------------|
G|-77-77-----------77-77-----------33-33-----------33-33---------5---------------|
D|-77-77-----------77-77-----------33-33-----------33-33---------5------- x3 ----|
A|-55-55-----------55-55-----------11-11-----------11-11---------3---------------|
E|-------------------------------------------------------------------------------|

e|------------10-583--------------10-583------------------------------|
B|--------------------------------------------------------------------|
G|----------------------------------------- x1 ---7--2--3----- x1 ----|
D|-0023---8----------0-2-3---8--------------------7--2--3-------------|
A|------------------------------------------------5--0--1-------------|
E|--------------------------------------------------------------------|

e|-------------------------------------------------------------|
B|-------------------------------------------------------------|
G|-7-7-7-7-7--7-7-7-7-7--5-5-5-5-2--2-5--5-2--2-5--5-----------|
D|-7-7-7-7-7--7-7-7-7-7--5-5-5-5-2--2-5--5-2--2-5--5--- x1 ----|
A|-5-5-5-5-5--5-5-5-5-5--3-3-3-3-1--1-3--3-1--1-3--3-----------|
E|-------------------------------------------------------------|

e|---------0-1-0-----------0-1-0-----------0-1-0-----------0-1-0-----------------|
B|-------3-------1-------3-------1-------3-------1-------3-----------------------|
G|-77-77-----------77-77-----------33-33-----------33-33---------5---------------|
D|-77-77-----------77-77-----------33-33-----------33-33---------5------- x2 ----|
A|-55-55-----------55-55-----------11-11-----------11-11---------3---------------|
E|-------------------------------------------------------------------------------|

e|---------0-1-0-----------0-1-0-------------------------------------------------|
B|-------3-------1-------3-------1-----------------------------------------------|
G|-77-77-----------77-77-----------33-33-----------33-33---------5---------------|
D|-77-77-----------77-77-----------33-33-----------33-33---------5------- x1 ----|
A|-55-55-----------55-55-----------11-11-----------11-11---------3---------------|
E|-------------------------------------------------------------------------------|
[ Tab from: http://www.guitartabs.cc/tabs/h/hawthorne_heights/niki_fm_tab_ver_6.html ]
e|---------0-1-0-----------0-1-0-----------0-1-0-----------0-1-0-----------------|
B|-------3-------1-------3-------1-------3-------1-------3-----------------------|
G|-77-77-----------77-77-----------33-33-----------33-33---------5---------------|
D|-77-77-----------77-77-----------33-33-----------33-33---------5------- x1 ----|
A|-55-55-----------55-55-----------11-11-----------11-11---------3---------------|
E|-------------------------------------------------------------------------------|

e|------------10-583--------------------------|
B|--------------------------------------------|
G|------------------------------------ x1 ----|
D|-0023---8----------0-2-3-----3-7------------|
A|---------------------------1----------------|
E|--------------------------------------------|

e|----------------------------------------------------------------------------|
B|----------------------------------------------------------------------------|
G|-7-7-7-7-7--7-7-7-7-7--5-5-5-5-2--2-5--5-2--2-5--5----------7-2-3-----------|
D|-7-7-7-7-7--7-7-7-7-7--5-5-5-5-2--2-5--5-2--2-5--5--- x1 ---7-2-3--- x1 ----|
A|-5-5-5-5-5--5-5-5-5-5--3-3-3-3-1--1-3--3-1--1-3--3----------5-0-1-----------|
E|----------------------------------------------------------------------------|

e|-------------------------------------------------------------|
B|-------------------------------------------------------------|
G|-7-7-7-7-7--7-7-7-7-7--5-5-5-5-2--2-5--5-2--2-5--5-----------|
D|-7-7-7-7-7--7-7-7-7-7--5-5-5-5-2--2-5--5-2--2-5--5--- x1 ----|
A|-5-5-5-5-5--5-5-5-5-5--3-3-3-3-1--1-3--3-1--1-3--3-----------|
E|-------------------------------------------------------------|

e|--------------------------------------------------------------------------|
B|--------------------------------------------------------------------------|
G|--------------------------------------------------------------------------|
D|-0-0-0-0-0-0-0-0-2-2-2-2-3-3-3-3----------------------------------- x1 ---|
A|---------------------------------1-1-1-1-1-1-1-1-3-3-3-3-3-3-3-3----------|
E|--------------------------------------------------------------------------|


e|-------------------------------------------------------------------------|
B|-------------------------------------------------------------------------|
G|-3-3-3-3-3-3-3-3---------------------------------------------------------|
D|-3-3-3-3-3-3-3-3-2-2-2-2-3-3-3-3-0-0-0-0-0-0-0-0-0-0-0-0-0-0-0--- x1 ----|
A|-1-1-1-1-1-1-1-1-1-1-1-1-1-1-1-1-1-1-1-1-1-1-1-1-3-3-3-3-3-3-3-----------|
E|-------------------------------------------------------------------------|

e|--------------------------|
B|--------------------------|
G|-2--3--5--2--3---- x2 ----|
D|-3--5--7--3--5------------|
A|-5--7--8--5--7------------|
E|--------------------------|

e|--------------------------------------------------------|
B|--------------------------------------------------------|
G|-7-7-------7-7-----5-5-----3-3-------5-5----------------|
D|-7-7--3-3--7-7--3--5-5--3--3-3--3-3--5-5--3-3--- x4 ----|
A|-5-5--3-3--5-5--3--3-3--3--1-1--3-3--3-3--3-3-----------|
E|-----1-1-------1-------1-------1-1-------1-1------------|

e|-13-------13-------12-------13-------8-------8---------------------------------|
B|-------------------------------------------------------------------------------|
G|-------10-------10-------10-------10------10-----10----9----10-----------------|
D|----10-------10-------10-------10------10------10---10---10----10-10--- x4 ----|
A|-------------------------------------------------------------------------------|
E|-------------------------------------------------------------------------------|

e|------------------|
B|------------------|
G|-3----------------|
D|-3-- Last Cord ---|
A|-1----- x1 -------|
E|------------------|
Comments