Hawthorne Heights - Niki Fm Chords & Tabs

 

Niki Fm Chords & Tabs

Hawthorne Heights Chords & Tabs

Version: 1 Type: Tab 0 ratings
1 star 2 stars 3 stars 4 stars 5 stars
comments

Niki Fm Tab

This is an amazing song by an amazing band on victory records...i came across
hawthorne heights while at purevolume.com and soon after i was in love and bought
their debut cd " the silence in black and white" I really urge you to buy it. to
take a listen to their music song heres a link...http://www.purevolume.com/hawthorneheights.Enjoy

Intro:

e-------------------------------------]
b-------------------------------------]
g-------------------------------------]
d--2~-----------2~------2~--------2~--]
a--4~----9-11---4~---9--4~--9-11--4~--]
d-------------------------------------]

verse:"this go down now..."
e--------]-----------------------------------------------------------]
b--------]-------[--4-4-]-------[--4-4-]-------[--4-4-]-------[--4-4-]
g--6-2-4-]-66-66-[-4-4-4]-66-66-[-4-4-4]-22-22-[-4-4-4]-22-22-[-4-4-4]
d--6-2-4-]-66-66----------66-66----------22-22----------22-22--------]repeat
a--4-0-2-]-44-44----------44-44----------00-00----------00-00--------]
d--------------------------------------------------------------------          
.. ..          .. ..          .. ..          .. ..

pre-chorus: "silence in black and white..."

e----------------]
b----------------]
g-----2~-4~------]
d--2~-2~-4~------]
a--4~-0~-2~------]
d----------------]

Chorus: "I know!!!!"

e---------------------------------------]
b---------------------------------------]
g-6-2-4--6666--6666--44--2~-2-2-2-------]
d-6-2-4--6666--6666--44--2~-2-2-2-------]
a-4-0-2--4444--4444--22--0~-0-0-0-------]
d---------------------------------------]

verse2
chorus

BRIDGE: part one x2
[ Tab from: http://www.guitartabs.cc/tabs/h/hawthorne_heights/niki_fm_tab.html ]
e-----------------------------------------------------------]
b-----------------------------------------------------------]
g-----------------------------------------------------------]
d-----------------------222222222---------------------------]
a-4444444444---666666666------------0000000000--22222222----]
d-----------------------------------------------------------]

part two with distortion 

e--------------------]
b--------------------]
g--------------------]
d---2~-------2~---2~-]repeat
a---4~-9-11--4~-9-4~-]
d--------------------]

part 3 "Im outside of you window!"

e--------------------------------------]
b--------------------------------------]
g-66--22--666-444-22-22-222-444--------]
d-66--22--666-444-22-22-222-444--------] repeat
a-44--00--444-222-00-00-000-222--------]
d--------------------------------------]
      ..             ..

ending...
e-----------------------]
b-----------------------]
g-----------------------]
d--2~------2------------]
a--4~-9-11-4--9---------]
d-----------------------]

NIKI FM: Let's go down now into the darkness of your thoughts hurry up now we're
waiting for us to fall I fall to pieces now a broken mirror in your life The silence
in black and white falling forward as she walks toward the light I know I'm outside
of your window with my radio I sleep with one eye open so I can see you breathing
I follow your chest home until I can see you I can hear you breathe in exhale
CHORUS REPEAT I know I'm outside of your window with my radio so I can see you
breathing you are the only station, you play the song I know You are the song I
know 


Okay there ya go...i love this song its awesome...im pretty this is correct but
any questions etc my email is entirely_smooth_chick@hotmail.com
Comments