Hawthorne Heights - Life On Standby Chords & Tabs

 

Life On Standby Chords & Tabs

Hawthorne Heights Chords & Tabs

Version: 1 Type: Tab 0 ratings
1 star 2 stars 3 stars 4 stars 5 stars
comments

Life On Standby Tab

Hawthorne Heights - Life on Standby
Submitted by: Derrick
(My First Submitted Tab)


P2 or P3 = Palm Mute Chord 2x or 3x
S = Slide
* = Harmonic

E ------------|
B ------------|
G ------------|  7x
D -2-2-2------|
A -2-2-2------|
E -0-0-0------|


E ------------------------------------------|
B ------------------------------------------|
G ------------------------------------------|  Strum
D -9--9---7--7------------------------------|             
A -9--9---7--7------------------------------|
E -7--7---5--5-------------------Pre-Verse--| 2x
  P2     P2                  
                            
E -------------|
B -------------|
G -------------|  Let each chord
D -7-5-2----5--|  ring out...pm,
A -7-5-2-------|  then hit the harm.
E -5-3-0-------|

[ Tab from: http://www.guitartabs.cc/tabs/h/hawthorne_heights/life_on_standby_tab.html ]
E -----------|---------|-------------------------------|
B ---------7-|---------|---------7-------------7-------|
G -------7---|-------7-|-----7-----7-------7-----7-----|  5x  -Verse
D ---5-------|---5-----|---5---5-----5---5---5---------|
A -7---7-----|-7---7---|-7-------------7------------7--|
E -----------|---------|-------------------------------|

E -----------------------------|-----------|
B -----------------------------|-----------|
G -5-------9-----7-----5-----?-|--5-s-7----|  2x  -Chorus
D -5-----2-9---2-7---2-5---2-?-|--5-s-7----|
A -3s5---2-7---2-5---2-3---2-2-|--3-s-5----|
E -------0-----0-----0-----0---|-----------|
        P3    P3    P3    P3


Back to Verse

Back to Chorus


E ------------------|
B ------------------|
G ---9---7---5---7--|  1x  Bridge
D ---9---7---5---7--|
A ---7---5---3---5--|
E -0---0---0---0----|

E -------------------|
B -------------------|
G -5-5-5-5-----------|  6x  Outro
D -3-3-3-3---2-2-2-2-|
A -3-3-3-3---2-2-2-2-|
E -----------0-0-0-0-|
Comments