Hawthorne Heights - Im On Your Side Chords & Tabs

 

Im On Your Side Chords & Tabs

Hawthorne Heights Chords & Tabs

Version: 1 Type: Tab

Im On Your Side Tab

Hawthorne Heights - I'm On Your Side

Tabbed by:Jason
Email:jasonjam04@yahoo.com

Tuning:Standard
H = Hammer On
P = Pull Off
/\ = Slide
P.M. = Palm Mute
Intro x2

Guitar 1
e|---------------------------------------------------------------------------|
B|---------------------------------------------------------------------------|
G|--666--999--444444444444--2222-2222-2222-2222------------------------------|
D|--666--999--444444444444--2222-2222-2222-2222------------------------------|
A|--444--777--222222222222--0000-0000-0000-0000------------------------------|
E|---------------------------------------------------------------------------|
P.M.                        ...  ...  ...  ...

Guitar 2
e|---------------------------------------------------------------------------|
B|------------------------------12-----12-----12-----12----------------------|
G|--888--999--88888888-986--9h11---9h11---9h11---9h11------------------------|
D|---------------------------------------------------------------------------|
A|---------------------------------------------------------------------------|
E|---------------------------------------------------------------------------|

Verse x2

Guitar 1
e|--0----0----0----|
B|--0----2----2----|
G|--2----3----2----|
D|--2----0----2----|
A|--2---------0----|
E|--0--------------|

Guitar 2
e|--------------------------------------------------------------------------------|
B|--------------------------------------------------------------------------------|
G|--9-8-6-4-2h4-9-8--------7-9-6\4--------13-11-9-8-8/9--------2-4-6-9-11-9-11-9--|
D|--------------------------------------------------------------------------------|
A|--------------------------------------------------------------------------------|
E|--------------------------------------------------------------------------------|

Pre-Chorus
[ Tab from: http://www.guitartabs.cc/tabs/h/hawthorne_heights/im_on_your_side_tab.html ]
Guitar 1  All Palm Muted
x4
e|---------------------------------------------------------------------------|
B|---------------------------------------------------------------------------|
G|---------------------------------------------------------------------------|
D|--222-222--555-222-22------------------------------------------------------|
A|--222-222--555-222-22------------------------------------------------------|
E|--000-000--333-000-00------------------------------------------------------|

Guitar 2 Not sure how many time the first 9 is picked.
x3
e|----------------|
B|----------------|
G|--9----9h11p9---|
D|----------------|
A|----------------|
E|----------------|
x1
e|----------------|
B|------12--------|
G|--9h11--11p9----|
D|----------------|
A|----------------|
E|----------------|

Chorus 

Guitar 1  
x2
e|---------------------|
B|---------------------|
G|--6-------4------2---|
D|--6-------4------2---|
A|--4x16----2x3----0x8-|
E|---------------------|
x1
e|-------------|
B|-------------|
G|--4---6----9-|
D|--4---6----9-|
A|--2---4----7-|
E|-------------|

Guitar 2

e|--------------------9-----|
B|------12-------------12---|
G|--9h11--11p9----9h11---11-|
D|--------------------------|
A|--------------------------|
E|--------------------------|


e|-------------------12-20-|
B|------12--------12-------|
G|--9h11--11p9-------------|
D|-------------------------|
A|-------------------------|
E|-------------------------|

Repeat Intro, Verse, Pre-Chorus, Chorus

Verse 3
x2
e|--20\4\2-2/4\2\0-|
B|-----------------|
G|-----------------|
D|-----------------|
A|-----------------|
E|-----------------|

Repeat Pre-Chorus, Chorus 3 times, Intro

Outro

Guitar 1 Whole Thing x2
              x2
e|----1---3-1-|----0---0---0-1-0--|
B|---2-2-2----|---2-2-2-2-2-2-2-2-|
G|--2---2-----|--1---1---0--------|
D|------------|-------------------|
A|------------|-------------------|
E|------------|-------------------|

Guitar 2
		   x2             x2
e|--10--10--12--13-|--9--9--12--13|--9-|
B|-----------------|--------------|----|
G|-----------------|--------------|----|
D|-----------------|--------------|----|
A|-----------------|--------------|----|
E|--------------------------------|----|