Hawthorne Heights - Decembers Chords & Tabs

 

Hawthorne Heights Chords & Tabs

Version: 1 Type: Bass Tab 0 ratings
1 star 2 stars 3 stars 4 stars 5 stars
comments

Decembers Bass Tab

++++++++++++++++++++++++++++++++
| Hawthorne Heights- Decembers |
++++++++++++++++++++++++++++++++

This is such a beautiful song!

Tuning: Drop D (DADG)

Intro
1.
G|-------------------------------------|
D|-3~-------2~-------0~----------------|
A|----------------------------3~-------|
D|-------------------------------------|

Verse
"Lets try to remember..."
2.
G|-------------------------------------|
D|-3~-------2~-------0~----------------|
A|----------------------------3~-------|--x2
D|-------------------------------------|

Pre-Chorus
"You dont have to speak because I can hear your heartbeat..."
3.
G|-------------------------------------------------------------------------|
D|-------------------0~-------0~-------------------------0~----------------|
A|-1~-------3~-----------------------3-1~-------3~-------------------------|
D|-------------------------------------------------------------------------|

Chorus
"Please, slow down girl..."
4.
G|-------------------------------------------------------------------------|
D|-------------------------------------------------------------------------|
A|-------------------3-3-3-3--3-3-3-3--------------------3-3-3-3--3-3-3-3--|
D|-5-5-5-5--0-0-0-0--------------------5-5-5-5--0-0-0-0--------------------|

Outro
5.
G|-------------------|
D|-------------------|
A|-1~-------1~-------|
D|-------------------|

Verse
"I miss you so much..."
6.
G|-------------------------------------------------------------------------|
D|-3-3-3-3--3-3-3-3--2-2-2-2--2-2-2-2--0-0-0-0--0-0-0-0--------------------|
A|-------------------------------------------------------3-3-3-3--3-3-3-3--|--x2
D|-------------------------------------------------------------------------|

Pre-Chorus
"You dont have to speak because I can hear your hearbeat..."
7.
G|-------------------------------------------------------------------------|
D|-------------------------------------0-0-0-0--0-0-0-0--0-0-0-0--0-0------|
A|-1-1-1-1--1-1-1-1--3-3-3-3--3-3-3-3---------------------------------3-3--|
D|-------------------------------------------------------------------------|

"You dont have to cover up how you feel when you're in love..."
8.
G|-------------------------------------------------------------------------|
D|-------------------------------------0~----------------------------------|
A|-1-1-1-1--1-1-1-1--3-3-3-3--3-3-3-3--------------------------------------|
D|-------------------------------------------------------------------------|
[ Tab from: http://www.guitartabs.cc/tabs/h/hawthorne_heights/decembers_btab.html ]
Chorus
"Please, slow down girl..."
9.
G|-------------------------------------------------------------------------|
D|-------------------------------------------------------------------------|
A|-------------------3-3-3-3--3-3-3-3--------------------3-3-3-3--3-3-3-3--|--x2
D|-5-5-5-5--0-0-0-0--------------------5-5-5-5--0-0-0-0--------------------|

Outro
"If only they were all alone..."
10.
G|------------------------------------|
D|------------------------------------|
A|-1-1-1-1--1-1-1-1--1-1-1-1--1-1-1-1-|
D|------------------------------------|

Bridge
11.
G|-------------------------------------------------------------------------|
D|-3-3-3-3--3-3-3-3--2-2-2-2--2-2-2-2--------------------------------------|
A|-------------------------------------1-1-1-1--1-1-1-1--1-1-1-1--1-1-1-1--|--x2
D|-------------------------------------------------------------------------|

Chorus
"We're moving way too fast for the world..."
12.
G|--------------------------------------------------|
D|----------------------------------------3/10~-10\-|
A|--------------------------------------------------|
D|--------------------------------------------------|

Chorus
"Please, slow down girl..."
13.
G|-------------------------------------------------------------------------|
D|-------------------------------------------------------------------------|
A|-------------------3-3-3-3--3-3-3-3--------------------3-3-3-3--3-3-3-3--|
D|-5-5-5-5--0-0-0-0--------------------5-5-5-5--0-0-0-0--------------------|

Keep playing until song fades...
Thx

Lyrics:

Let's try to remember these days back in December
Our lives were very different
I was lonely when we first met
A small upstairs apartment
Driving through the darkness to get back home
Before they knew you were even gone

You don't have to speak because I can hear your heartbeat
Fluttering like butterflies searching for a drink
You don't have to cover up how you feel when you're in love
I'll always know I'm not enough to even make you think

Please, slow down, girl
We're moving way too fast for their world
We've gotta make this last

I miss you so much, a self-inflicted coma
The days drag on like marathons running with bare feet
And when I feel the stress, I'm lonely and depressed
I picture you in the dress you wore four weeks ago

Please, slow down, girl
We're moving way too fast for their world
We've gotta make this last
I know it hurts to feel so all alone
I'm by myself, more then you could know

If only they were all alone...
They were all alone...

+++++++++++++++++++++++++++++++++
| RaiLeff                       |
| Underground__Dora@Hotmail.Com |
+++++++++++++++++++++++++++++++++
Comments