Hawthorne Heights - Dead In The Water Chords & Tabs

 

Hawthorne Heights Chords & Tabs

Version: 1 Type: Tab 0 ratings
1 star 2 stars 3 stars 4 stars 5 stars
comments

Dead In The Water Tab

e----------------------------------|
b----------------------------------|
G-----10-10-10-10-9-9-9-9-7-7-7-7--|
D-0-0--x--x--x--x-x-x-x-x-x-x-x-x--|
A-0-0--8--8--8--8-7-7-7-7-5-5-5-5--|
D-0-0------------------------------|X2

e----------------------------------------------------------------------|
b----------------------------------------------------------------------|
G-----10-10-10-10-9-9-9-9-7-7-7-7------10-10-10-10-9-9-9-9-12-12-12-12-|
D-3-3--x--x--x--x-x-x-x-x-x-x-x-x--8-8--x--x--x--x-x-x-x-x--x--x--x--x-|
A-3-3--8--8--8--8-7-7-7-7-5-5-5-5--8-8--8--8--8--8-7-7-7-7-10-10-10-10-|
D-3-3------------------------------8-8---------------------------------|

e------------------------------------------|
b------------------------------------------|
G-----14-14-14-14-12-12-12-12-10-10-10-10--|
D-0-0--x--x--x--x--x--x--x--x--x--x--x--x--|
A-0-0-12-12-12-12-10-10-10-10--8--8--8--8--|
D-0-0--------------------------------------|X2
[ Tab from: http://www.guitartabs.cc/tabs/h/hawthorne_heights/dead_in_the_water_tab.html ]
e------------------------------------------|
b------------------------------------------|
G-----14-14-14-14-12-12-12-12-10-10-10-10--|
D-3-3--x--x--x--x--x--x--x--x--x--x--x--x--|
A-3-3-12-12-12-12-10-10-10-10--8--8--8--8--|
D-3-3--------------------------------------|

e------------------------------------------|
b------------------------------------------|
G-----14-14-14-14-12-12-12-12-15-15-15-15--|
D-8-8--x--x--x--x--x--x--x--x--x--x--x--x--|
A-8-8-12-12-12-12-10-10-10-10-13-13-13-13--|
D-8-8--------------------------------------|

e--------|
b--------|
G--------|
D-0-0-0--|
A-0-0-0--|
D-0-0-0--|X4

Palm Muted
e-----------------------------------|
b-----------------------------------|
G-----------------------------------|
D-0------10------8------5-----7-----|
A-0------10------8------5-----7-----|
D-0-x16--10-x16--8-x16--5-x8--7-x8--|   X2

chorus
e-----------------------------------|
b-----------------------------------|
G-----------------------------------|
D-0------10------8------5-----7-----|
A-0------10------8------5-----7-----|
D-0-x16--10-x16--8-x16--5-x8--7-x8--|   X2
Comments