Hawthorne Heights - Come Back Home Chords & Tabs

 

Hawthorne Heights Chords & Tabs

Version: 3 Type: Tab 0 ratings
1 star 2 stars 3 stars 4 stars 5 stars
comments

Come Back Home Tab

I. Intro
Gtr 2
e|----------------------------------------------|
B|----------------------------------------------|
G|----------------------------------------------|
D|--9-9-7~--9-9-7~------7-7--9-9-7~--9-9-7~--5--|
A|--9-9-7~--9-9-7~--7-7-5-5--9-9-7~--9-9-7~--5--|
E|--7-7-5~--7-7-5~--5-5------7-7-5~--7-7-5~--3--|
(Then)
Gtr 1
e|-----------------------------------|    |-----|
B|-----------------------------------| x2 |-----|
G|-----------------------------------|    |-----|
D|--9-9-9-9-9-9-9-9-5-5-5-5-5-5-5-5--|    |--5--|
A|--9-9-9-9-9-9-9-9-5-5-5-5-5-5-5-5--|    |--5--|
E|--7-7-7-7-7-7-7-7-3-3-3-3-3-3-3-3--|    |--3--|

Gtr 2
e|------------------------------------------------------------|
B|------------------------------------------------------------|
G|------------------------------------------------------------|
D|--9-9-7~--9-9-7--7-7------7-7--9-9-7~--9-9-7--7-7------7-7--|
A|--9-9-7~--9-9-7--7-7--7-7-5-5--9-9-7~--9-9-7--7-7--7-7-5-5--|
E|--7-7-5~--7-7-5--5-5--5-5------7-7-5~--7-7-5--5-5--5-5------|

e|--------------------------------------------------|
B|--------------------------------------------------|
G|--------------------------------------------------|
D|--9-9-7~--9-9-7--7-7------7-7--9-9-7~--9-9-7~--5--|
A|--9-9-7~--9-9-7--7-7--7-7-5-5--9-9-7~--9-9-7~--5--|
E|--7-7-5~--7-7-5--5-5--5-5------7-7-5~--7-7-5~--3--|

II. Verse
Gtr 1
e|-------------------|    |-----|
B|-------------------| x2 |-----|
G|-------------------|    |-----|
D|-------------------|    |--5--|
A|--9-(x16)-5-(x16)--|    |--5--|
E|--7-------3--------|    |--3--|
    :       :
(Then)
e|-----------------------------------|
B|-----------------------------------|
G|-----------------------------------|
D|-----------------------------------|
A|--9-(x16)-5-(x16)-9-(x16)-7-(x16)--|
E|--7-------3-------7-------5--------|
    :       :       :       :

Gtr 2
e|----------------------------------------------|
B|----------------------------------------------|
G|--11-11-9-11--11-11-9----11-11-9-11--9-9-9-9--|
D|----------------------9-----------------------|
A|----------------------------------------------|
E|----------------------------------------------|

III. Chorus
Gtr 1
e|-----------------------------------------------------|
B|-----------------------------------------------------| x2
G|-----------------------------------------------------|
D|--5-5--5-5--5-5-5-5-7-7-7-7-7-7-7-7-7-7-7-7-7-7-7-7--|
A|--5-5--5-5--5-5-5-5-7-7-7-7-7-7-7-7-7-7-7-7-7-7-7-7--|
E|--3-3--3-3--3-3-3-3-5-5-5-5-5-5-5-5-5-5-5-5-5-5-5-5--|

Gtr 2
e|------------------------------------------------| 
B|------------------------------------------------| x2
G|-------7-------7--9/11\9-------7-------7-----7--|
D|--5-5--7--5-5--7----------5-5--7--5-5--7--5--7--|
A|--5-5--7--5-5--5--7/-9\7--5-5--5--5-5--5--5--5--|
E|--3-3-----3-3-------------3-3-----3-3-----3-----|

IV. Riff
Gtr 1
e|--------------------------------------|
B|--------------------------------------|
G|--------------------------------------|
D|--9-9-9-9-9-9-9-9-5-5-5-5-5-5-5-5--5--|
A|--9-9-9-9-9-9-9-9-5-5-5-5-5-5-5-5--5--|
E|--7-7-7-7-7-7-7-7-3-3-3-3-3-3-3-3--3--|

Gtr 2
e|------------------------------------------------------|
B|------------------------------------------------------|
G|------------------------------------------------------|
D|--9-9-7~--9-9-7--7-7------7-7--9-9-7~--9-9-7--7-7--5--|
A|--9-9-7~--9-9-7--7-7--7-7-5-5--9-9-7~--9-9-7--7-7--5--|
E|--7-7-5~--7-7-5--5-5--5-5------7-7-5~--7-7-5--5-5--3--|

V. Repeat Verse

VI. Repeat Chorus

VII. Post Chorus
Gtr 1
e|-----------------------------------|
B|-----------------------------------| x2
G|-----------------------------------|
D|--5-5-5-5-5-5-5-5/7-7-7-7-7-7-7-7--|
A|--5-5-5-5-5-5-5-5/7-7-7-7-7-7-7-7--|
E|--3-3-3-3-3-3-3-3/5-5-5-5-5-5-5-5--|
[ Tab from: http://www.guitartabs.cc/tabs/h/hawthorne_heights/come_back_home_tab_ver_3.html ]
Gtr 2
e|-------------------------------------|
B|-------------------------------------|
G|--7-7-7-7-7-7-7-7-7/9-9-9-9-9-9-9-9--|
D|-------------------------------------|
A|--5-5-5-5-5-5-5-5-5/7-7-7-7-7-7-7-7--|
E|-------------------------------------|

e|-----------------------------------------------|
B|-----------------------------------------------|
G|--7-7-7-7-7-7-7-12-12/14-14-14-14-14-14-14-----|
D|-------------------------------------------9~--|
A|--5-5-5-5-5-5-5-10-10/12-12-12-12-12-12-12-9~--|
E|-------------------------------------------7~--|

VIII. Interlude
Gtr 1
e|-------------------| x12
B|------3-------2----|
G|--------2-------2--|
D|-------------------|
A|----------0-0------|
E|--3-3--------------|

Gtr 2 comes in after Gtr 1 Plays Part 4 times
e|----------------------------------------------|
B|-------------------15\3~~~~~~~~~~~------------|
G|--7/14~~~~--------------------------7/14~~~~--|
D|----------------------------------------------|
A|----------------------------------------------|
E|----------------------------------------------|  

e|-------------------------------------------15\13/15\10--|
B|--10/12---12/15---15/17--15^(17)------------------------|
G|----------------------------------10\4~~~---------------|
D|--------------------------------------------------------|
A|--------------------------------------------------------|
E|--------------------------------------------------------|

IX. Bridge
Gtr 1
e|-------------------------------------------------------------------|
B|-------------------------------------------------------------------| x2
G|-------------------------------------------------------------------|
D|--5-5-5-5-5-5-5-5-7-7-7-7-7-7-7-7-5-5-5-5-5-5-5-5-7-7-7-7-7-7-7-7--|
A|--5-5-5-5-5-5-5-5-7-7-7-7-7-7-7-7-5-5-5-5-5-5-5-5-7-7-7-7-7-7-7-7--|
E|--3-3-3-3-3-3-3-3-5-5-5-5-5-5-5-5-3-3-3-3-3-3-3-3-5-5-5-5-5-5-5-5--|

Gtr 2
e|-----------------------------------------------------------------------------------|
B|-----------------------------------------------------------------------------------|
G|--7-7-7-7-7-7-7-7-9-9-9-9-9-9-9-9-12-12-12-12-12-12-12-12-14-14-14-14-14-14-14-14--|
D|-----------------------------------------------------------------------------------|
A|--5-5-5-5-5-5-5-5-7-7-7-7-7-7-7-7-10-10-10-10-10-10-10-10-12-12-12-12-12-12-12-12--|
E|-----------------------------------------------------------------------------------|

e|--10---------------9--------------10----------------------12-----------------------|
B|--13^(15)~~~~~~~--12^(14)~~~~~~~--13^(15)~~~~~~~~~~~~~~~--15^(17)~~~~~~~~~~~~~~~~--|
G|-----------------------------------------------------------------------------------|
D|-----------------------------------------------------------------------------------|
A|-----------------------------------------------------------------------------------|
E|-----------------------------------------------------------------------------------|

X. Repeat Chorus

XI. Repeat Post Chorus

XII. Outro x3
Gtr 2
e|------------------------------------------------------|
B|----------10-10-10------------------10-10-10----------|
G|-----9-11----------9-11--------9-11----------11-9-11--|
D|--12--------------------12--12------------------------|
A|------------------------------------------------------|
E|------------------------------------------------------|

e|------------------------------------------------------------------------------|
B|-----------------10-------------------------------------10----------------10--|
G|--11-9----9-11-9----9-11-9----9-11-------11-9----9-11-9----9-11-9----9-11-----|
D|-------12------------------12-------12--------12------------------12----------|
A|------------------------------------------------------------------------------|
E|------------------------------------------------------------------------------|
Comments