Hawthorne Heights - Breathing In Sequence Chords & Tabs

 

Hawthorne Heights Chords & Tabs

Version: 1 Type: Tab 0 ratings
1 star 2 stars 3 stars 4 stars 5 stars
comments

Breathing In Sequence Tab

   
Drop D
Hawthorne Heights - Breathing in Sequence

INTRO

Lead guitar:
e---------------------------------------------------------------------|
b-----77----99----1111------11--11--6---------------------------------|
g---88--1010--1111----13810-------------------------------------------|
d---------------------------------------------------------------------|
a---------------------------------------------------------------------|
d---------------------------------------------------------------------|

Background guitar
e---------------------------------------------------------------------|
b---------------------------------------------------------------------|
g---------------------------------------------------------------------|
d-1111-8888-9999-11111111----1xx-8xx-9~-------------------------------|
a-1111-8888-9999-11111111----1xx-8xx-9~-------------------------------|
d-1111-8888-9999-11111111----1xx-8xx-9~-------------------------------|


VERSE:

BG guitar
e-------------------------------------------------------------------------|
b-------------------------------------------------------------------------|
g-44-44x6-44-44x6--------4-------4--44-44x6-44-44x6--------4-------4--4~--|
d-44-44x6-44-44x6--11-11x4-11-11x4--44-44x6-44-44x6--11-11x4-11-11x4--4~--|
a-22-22x4-22-22x4--11-11x2-11-11x2--22-22x4-22-22x4--11-11x2-11-11x2--2~--|
d------------------11-11x--11-11x--------------------11-11x--11-11x-------|

Lead Guitar
e----------------------------------------------------------------------------------------|
b-----------------------------------7777777/6-h7-7777777/6-h11(x7)/14-h11-(x7)/14-7~-----|
g----------------------------------------------------------------------------------------|
d----------------------------------------------------------------------------------------|
a----------------------------------------------------------------------------------------|
d----------------------------------------------------------------------------------------|


PRE CHOURS

Lead guitar:
e----------------66666666---------------------------------------------|x2
b777777777777777----------66666666------------------------------------|
g---------------------------------------------------------------------|
d---------------------------------------------------------------------|
a---------------------------------------------------------------------|
d---------------------------------------------------------------------|

Background Guitar:
e---------------------------------------------------------------------|
b---------------------------------------------------------------------|
g-66-----6--4-6------6--4-6-------------------------------------------|
d-66-1---6--4-6--1---6--4-6-------------------------------------------|
a-44-1---4--2-4--1---4--2-4-------------------------------------------|
d----1-----------1----------------------------------------------------|

Chours:

Lead guitar:
e---------------------------9----9----9----9--------------------------|X2
b----777777777777-9-7----7-----7----7----7----7-----------------------|
g---------------------10-----10---10---10---10------------------------|
d---------------------------------------------------------------------|
a---------------------------------------------------------------------|
d---------------------------------------------------------------------|

BG guitar:
e---------------------------------------------------------------------|x2
b---------------------------------------------------------------------|
g--6-------------666666666666-444444444444-666666666666---------------|
d--6-11111111111-666666666666-444444444444-666666666666---------------|
a--4-11111111111-444444444444-222222222222-444444444444---------------|
d----11111111111------------------------------------------------------|

VERSE 2
[ Tab from: http://www.guitartabs.cc/tabs/h/hawthorne_heights/breathing_in_sequence_tab.html ]
Lead
comes in 2nd time:
(hint: its 11 not 1)
e-----------------9999------------------------------------------------|
b-777777-11111111------777777-9999-11111111----777-111111-------------|
g-------------------------------------------888-----------------------|
d---------------------------------------------------------------------|
a---------------------------------------------------------------------|
d---------------------------------------------------------------------|
  ......               ......

Bg
e---------------------------------------------------------------------|
b---------------------------------------------------------------------|
g-44444-44444/666-X2------------666-X2--------------------------------|
d-44444-44444/666---11111-11111-666-----------------------------------|
a-22222-22222/444---11111-11111-444-----------------------------------|
d-------------------11111-11111---------------------------------------|
  ....  ..... ..    ....  ..... ..

//REPEAT PRE CHOURS\
//REPEAT CHOURS.\

AFTER 2NDCHOURS COMES THIS :

Bg
e-------------------------------------------------------------------------|
b-------------------------------------------------------------------------|
g---------------------------------44------44-----666------66--------------|
d--11------11-----111------11-----44------44-----666------66--------------|
a--11------11-----111------11-----22------22-----444------44--------------|
d--11------11-----111------11---------------------------------------------|

Lead
e-------------------------------9-------------------------------9---------|
b----11-9----119----11-9----119------11-9----119----11-9----119-----------|
g---------10-----10------10---------------10-----10------10---------------|
d-------------------------------------------------------------------------|
a-------------------------------------------------------------------------|
d-------------------------------------------------------------------------|

SOLO:

1ST GUITAR SOLOS
e------------------------------------------13-14-14131413--1413--161413-181614(x3)-21--|
b----2-4-6-7-7676-2----2-4-6-7-9-11---11-14--------------14----14----------------------|
g--3-----------------3--------------11-------------------------------------------------|
d--------------------------------------------------------------------------------------|
a--------------------------------------------------------------------------------------|
d--------------------------------------------------------------------------------------|

2ND GUITAR
e-------------------------------9-------------------------------9---------|
b----11-9----119----11-9----119------11-9----119----11-9----119-----------|
g---------10-----10------10---------------10-----10------10---------------|
d-------------------------------------------------------------------------|
a-------------------------------------------------------------------------|
d-------------------------------------------------------------------------|

BACKGROUND GUITAR
e-------------------------------------------------------------------------|
b-------------------------------------------------------------------------|
g---------------------------------44------44-----666------66--------------|
d--11------11-----111------11-----44------44-----666------66--------------|
a--11------11-----111------11-----22------22-----444------44--------------|
d--11------11-----111------11---------------------------------------------|

REPEAT CHORUS

ENDING

bg guitar
e--------------------------------------------------------------------------|
b--------------------------------------------------------------------------|
g-----3---4---6-X2-----3333-444-666----------------------------------------|
d-1---3---4---6---1111-1111-444-666--1XX-8XXX-9~---------------------------|
a-1---1---2---4---1111-1111-222-444--1XX-8XXX-9~---------------------------|
d-1---------------1111---------------1XX-8XXX-9~---------------------------|

1ST GUITAR
e---------------------------------------------------------------|
b--------------------444777666677991113~--9~-11~-6~-------------|
g--11-11-10-----(x6)--------------------------------------------|
d----------11-8-------------------------------------------------|
a---------------------------------------------------------------|
d---------------------------------------------------------------|

2ND GUITAR
After 3rd time:
e---------------------------------------------------------------|
b--11-11-9------(x3)------------77991113~--9~-11~-6~------------|
g----------10---------------------------------------------------|
d-------------11------------------------------------------------|
a---------------------------------------------------------------|
d---------------------------------------------------------------|
Comments