Hawthorne Heights - Blue Burns Orange Chords & Tabs

 

Hawthorne Heights Chords & Tabs

Version: 3 Type: Tab 0 ratings
1 star 2 stars 3 stars 4 stars 5 stars
comments

Blue Burns Orange Tab

   
Title: Blue Burns Orange
Artist: Hawthorne Heights
Album: The Silence in Black And White (2004)

Tabbed by Joe Whalen on 11/23/06
jwhalen@smhlynn.org
joe_whalen66@yahoo.com
compy95@aol.com


I noticed there weren’t any complete tabs for this song, so I decided to make one in my
time. I have no experience tabbing for piano so go with me here, I tried to explain the
I could. Timing isn’t perfect in some parts, but I did the best I could with typing it 
so if you listen to the song you shouldn’t have any trouble figuring it out.

*UPDATES*
11/30: 
-put  and  over respective guitars
-changed guitar 2 to standard tuning       

GUITAR KEY
~: let note ring
x: muted
.: palm mute
h: hammer on
p: pull off
< >: Harmonic

PIANO KEY
Notes on bottom: left hand
Notes on top: right hand
Spaces between notes means two different notes (If no space then play 	two notes at same time)
*Notes played together are always written lowest to highest*

Tuning
GTR 1: Standard
GTR 2: Standard

|INTRO|


e|---------------------------------------------------------|
B|---------------------------------------------------------|
G|-6-------------7-------------6-------------7-------------|
D|-9-------------9-------------9-------------9-------------|
A|-9-9-9-9-9-9-9-9-9-9-9-9-9-9-9-9-9-9-9-9-9-9-9-9-9-9-9-9-|
E|---------------------------------------------------------|


e|---------------------------------------------------------|
B|---------------------------------------------------------|
G|---------------------------------------------------------|
D|---------------------------------------------------------|
A|---------------------------------------------------------|
E|---------------------------------------------------------|


e|------------|-------|---------|
B|--------12~-|-------|---------|
G|-11-9-------|-11-9~-|-7-7-6-6-|
D|------9-----|-------|---9-9-8-|
A|------------|-------|---------|
E|------------|-------|---------|


e|-------------------------------------------------|
B|-------------------------------------------------|
G|-------------------------------------------------|
D|-5-5-5-5-5-5-5-5-5-5-5-5-5-5-5-5-7-7-7-7-7-7-7-7-|
A|-5-5-5-5-5-5-5-5-5-5-5-5-5-5-5-5-7-7-7-7-7-7-7-7-|
E|-3-3-3-3-3-3-3-3-3-3-3-3-3-3-3-3-5-5-5-5-5-5-5-5-|

|VERSE|


e|---------------------------------------------------------|
B|---------------------------------------------------------|
G|-7~--------------------------------6~--------------------|
D|-9~--------------------------------9~--------------------|
A|---------------------------------------------------------|
E|---------------------------------------------------------|


e|---------------------------------------------------------|
B|---------------------------------------------------------|
G|---------------------------------------------------------|
D|-9-x-x-x-x-x-x-x-x-xxx-x-x-x-x-x-x-7-x-x-x-x-x-x-x-x-xxx-|
A|-9-x-x-x-x-x-x-x-x-xxx-x-x-x-x-x-x-7-x-x-x-x-x-x-x-x-xxx-|
E|-7-x-x-x-x-x-x-x-x-xxx-x-x-x-x-x-x-5-x-x-x-x-x-x-x-x-xxx-|


e|---------------------------------------------------------|
B|---------------------------------------------------------|
G|-------------7---7---7-7-x-7-7-7-x-7-x-x-7-----9-x-x-x---|
D|-------------x---x---x-x-x-x-x-x-x-x-x-x-x-----x-x-x-x-9-|
A|-------------5---5---5-5-x-5-5-5-x-5-x-x-5-----7-x-x-x-x-|
E|-------------------------------------------------------7-|


e|---------------------------------------------------------|
B|---------------------------------------------------------|
G|-----------------------------------------------9-x-x-x-x-|
D|-x-x-x-x-x-x-5-x-x-x-x-x-x-x-x-xxx-x-x-x-x-x-x-9-x-x-x-x-|
A|-x-x-x-x-x-x-5-x-x-x-x-x-x-x-x-xxx-x-x-x-x-x-x-7-x-x-x-x-|
E|-x-x-x-x-x-x-3-x-x-x-x-x-x-x-x-xxx-x-x-x-x-x-x-----------|


e|---------------------------------------------------------|
B|------------------------------------------------7h8p7-5--|
G|-------11-x-x--------------------------------------------|
D|-x-x-x--x-x-x-9-x-x-x-x----------------------------------|
A|-x-x-x--9-x-x-x-x-x-x-x----------------------------------|
E|-x-x-x--------7-x-x-x-x----------------------------------|


e|--------------------------------------------------------|
B|--------------------------------------------------------|
G|-x-x-11-x-x-x-x-x-x-x-x---------------------------------|
D|-x-x-11-x-x-x-x-x-x-x-x-9-x-x-x-x-x-x-x-x-xxx-x-x-x-x-x-|
A|-x-x--9-x-x-x-x-x-x-x-x-9-x-x-x-x-x-x-x-x-xxx-x-x-x-x-x-|
E|------------------------7-x-x-x-x-x-x-x-x-xxx-x-x-x-x-x-|


e|-------------------------------------------------------|
B|-------------------------------------5h7-3-3-x-3-3-x-3-|
G|--------------------------------—----------2-x-2-2-x-2-|
D|-------------------------------------------------------|
A|-------------------------------------------------------|
E|-------------------------------------------------------|


e|-------------------------------------------------------|
B|-------------------------------------------------------|
G|-------------------------------------------------------|
D|-x-7-x-x-x-x-x-x-x-x-xxx-x-x-x-x-x-x-5-x-x-x-x-x-x-x-x-|
A|-x-7-x-x-x-x-x-x-x-x-xxx-x-x-x-x-x-x-5-x-x-x-x-x-x-x-x-|
E|-x-5-x-x-x-x-x-x-x-x-xxx-x-x-x-x-x-x-3-x-x-x-x-x-x-x-x-|


e|-x-3-x-33333-x-2-x-2-2-x-2-x-2-x-22222-x-----------------|
B|-x-2-x-22222-x-2-x-2-2-x-2-x-2-x-22222-x-----------------|
G|---------------------------------------------------------|
D|---------------------------------------------------------|
A|---------------------------------------------------------|
E|---------------------------------------------------------|


e|---------------------------------------------------------|
B|---------------------------------------------------------|
G|---------------------------------------------------------|
D|-xxx-x-x-x-x-x-x-4-x-x-x-x-x-x-5-x-x-x-x-x-x-------------|
A|-xxx-x-x-x-x-x-x-4-x-x-x-x-x-x-5-x-x-x-x-x-x-------------|
E|-xxx-x-x-x-x-x-x-2-x-x-x-x-x-x-3-x-x-x-x-x-x-------------|

After the first verse there’s a piano part, which I’ll tab here for guitar and piano.


e|----10----5----0----5----10----5------------------------|
B|-----0---------2----------0-----------------------------|
G|----------6---------6----------6-—----------------------|
D|--------------------------------------------------------|
A|--------------------------------------------------------|
E|-7~----5~---3~---5~---7~----5~---3333333355555555-------|


e|-------------------------------------------------------|
B|-------------------------------------------------------|
G|-------------------------------------------------------|
D|---------------------------------xxxxxxxxxxxxxxxx------|
A|---------------------------------xxxxxxxxxxxxxxxx------|
E|---------------------------------xxxxxxxxxxxxxxxx------|
                Play this even if you’re using piano for this part.

  BD   C#A   C#E   C#A   BD   C#A
B    A     G     A     B    A     G G G G G G G G A A A A A A A A

|CHORUS|


e|---------------2---------------------------------------|
B|-3---2-----3------------0---3~-------------------------|
G|--------------------2-----------—----------------------|
D|--------------------------------------------<7>--------|
A|-------------------------------------------------------|
E|-------------------------------------------------------|


e|-------------------------------------------------------|
B|-------------------------------------------------------|
G|-------------------------------------------------------|
D|-5-5-5-5-5-5-5-5-7-7-7-7-7-7-7-7-9-7-9-x-x-x-9-7-9-x-x-|
A|-5-5-5-5-5-5-5-5-7-7-7-7-7-7-7-7-9-7-9-x-x-x-9-7-9-x-x-|
E|-3-3-3-3-3-3-3-3-5-5-5-5-5-5-5-5-7-5-7-x-x-x-7-5-7-x-x-|
                                        .           .


e|-------------------2-----------------------------------|
B|-----3---2-----3------------0---3~---------------------|
G|------------------------2-------—----4-6-7~------------|
D|-------------------------------------x-x-x~------------|
A|-------------------------------------2-4-5~------------|
E|-------------------------------------------------------|


e|-------------------------------------------------------|
B|-------------------------------------------------------|
G|-------------------------------------------------------|
D|-x-x-5-5-5-5-5-5-5-5-7-7-7-7-7-7-7-7-9-7-5~------------|
A|-x-x-5-5-5-5-5-5-5-5-7-7-7-7-7-7-7-7-9-7-5~------------|
E|-x-x-3-3-3-3-3-3-3-3-5-5-5-5-5-5-5-5-7-5-3~------------|
                                        . .

|VERSE 2|


e|-------------------------------------------------------|
B|-------------------------------------------------------|
G|--------------------------------—----------------------|
D|-------------------------------------------------------|
A|-------------------------------------------------------|
E|-------------------------------------------------------|


e|--------------------------------------------------------|
B|--------------------------------------------------------|
G|--------------------------------------------------------|
D|-9-x-x-x-x-x-x-x-x-x-x-4-7-9-x-x-x-x-x-x-x-x-x-x-4/5-5~-|
A|-9-x-x-x-x-x-x-x-x-x-x-4-7-9-x-x-x-x-x-x-x-x-x-x-4/5-5~-|
E|-7-x-x-x-x-x-x-x-x-x-x-2-5-7-x-x-x-x-x-x-x-x-x-x-2/4-4~-|
                            .                         .


e|-------------------------------------------------------|
B|-------------------------------------------------------|
G|--------------------------------—----------------------|
D|-------------------------------------------------------|
A|-------------------------------------------------------|
E|-------------------------------------------------------|


e|------------------------------------------------------------------|
B|------------------------------------------------------------------|
G|------------------------------------------------------------------|
D|-7~-4/5-9-x-x-x-x-x-x-x-x-x-x-4-7-9-x-x-x-x-x-x-x-x-x-x-4/5-5~-7~-|
A|-7~-4/5-9-x-x-x-x-x-x-x-x-x-x-4-7-9-x-x-x-x-x-x-x-x-x-x-4/5-5~-7~-|
E|-5~-2/3-7-x-x-x-x-x-x-x-x-x-x-2-5-7-x-x-x-x-x-x-x-x-x-x-2/3-3~-5~-|


e|----10----5----0----5----10----5------------------------|
B|-----0---------2----------0-----------------------------|
G|----------6---------6----------6-—----------------------|
D|--------------------------------------------------------|
A|--------------------------------------------------------|
E|-7~----5~---3~---5~---7~----5~---3333333355555555-------|


e|-------------------------------------------------------|
B|-------------------------------------------------------|
G|-------------------------------------------------------|
D|---------------------------------xxxxxxxxxxxxxxxx------|
A|---------------------------------xxxxxxxxxxxxxxxx------|
E|---------------------------------xxxxxxxxxxxxxxxx------|
                           Same as before, play this with piano.

[ Tab from: http://www.guitartabs.cc/tabs/h/hawthorne_heights/blue_burns_orange_tab_ver_3.html ]
  BD   C#A   C#E   C#A   BD   C#A
B    A     G     A     B    A     G G G G G G G G A A A A A A A A

|CHORUS|


e|---------------2---------------------------------------|
B|-3---2-----3------------0---3~-------------------------|
G|--------------------2-----------—----------------------|
D|--------------------------------------------<7>--------|
A|-------------------------------------------------------|
E|-------------------------------------------------------|


e|-----------------------------------------------------------|
B|-----------------------------------------------------------|
G|-----------------------------------------------------------|
D|-5-5-5-5-5-5-5-5-7-7-7-7-7-7-7-7-9-7-9-x-x-x-9-7-9-x-x-x-x-|
A|-5-5-5-5-5-5-5-5-7-7-7-7-7-7-7-7-9-7-9-x-x-x-9-7-9-x-x-x-x-|
E|-3-3-3-3-3-3-3-3-5-5-5-5-5-5-5-5-7-5-7-x-x-x-7-5-7-x-x-x-x-|


e|---------------2---------------------------------------|
B|-3---2-----3------------0---3~-------------------------|
G|--------------------2-----------—----------------------|
D|--------------------------------------------<7>--------|
A|-------------------------------------------------------|
E|-------------------------------------------------------|


e|-------------------------------------------------------|
B|-------------------------------------------------------|
G|-------------------------------------------------------|
D|-5-5-5-5-5-5-5-5-7-7-7-7-7-7-7-7-9-7-9-x-x-x-9-7-9-x-x-|
A|-5-5-5-5-5-5-5-5-7-7-7-7-7-7-7-7-9-7-9-x-x-x-9-7-9-x-x-|
E|-3-3-3-3-3-3-3-3-5-5-5-5-5-5-5-5-7-5-7-x-x-x-7-5-7-x-x-|
                                        .           .


e|-------------------2-----------------------------------|
B|-----3---2-----3------------0---3~---------------------|
G|------------------------2-------—----4-6-7~------------|
D|-------------------------------------x-x-x~------------|
A|-------------------------------------2-4-5~------------|
E|-------------------------------------------------------|


e|-------------------------------------------------------|
B|-------------------------------------------------------|
G|-------------------------------------------------------|
D|-x-x-5-5-5-5-5-5-5-5-7-7-7-7-7-7-7-7-9-7-5~------------|
A|-x-x-5-5-5-5-5-5-5-5-7-7-7-7-7-7-7-7-9-7-5~------------|
E|-x-x-3-3-3-3-3-3-3-3-5-5-5-5-5-5-5-5-7-5-3~------------|

|VERSE 3|


e|-------------------------------------------------------------------|
B|-------------------------------------------------------------------|
G|--------------------------------—----------------------------------|
D|-------------------------------------------------------------------|
A|-------------------------------------------------------------------|
E|-------------------------------------------------------------------|


e|---2--2-2-2-2--2-2--2-2-2---2--2-2-2-2--2-2--2-2-2---2--2-2-2-2--2-|
B|-------------------------------------------------------------------|
G|-4------------------------2----------------------------------------|
D|-4------------------------2------------------------5---------------|
A|-2------------------------0------------------------5---------------|
E|---------------------------------------------------3---------------|


e|------------------------------------------------------|
B|------------------------------------------------------|
G|--------------------------------—---4-4-4-4-4-4-4-4-4-|
D|------------------------------------x-x-x-x-x-x-x-x-x-|
A|------------------------------------2-2-2-2-2-2-2-2-2-|
E|------------------------------------------------------|


e|-2--2-2-2---2-2--2-2-2---2-2--2-2-2-2--2-2--2-2-2-2--2-|
B|-------------------------------------------------------|
G|-------------------------------------------------------|
D|----------4------------5-------------------------------|
A|----------4------------5-------------------------------|
E|----------2------------3-------------------------------|


e|-------------------------------------------------------|
B|-------------------------------------------------------|
G|-4-4-4-4-4-4-4/6-6-6-6-6-6-6-6-6—6-6-6-6-6-6-6/7-7-7-7-|
D|-x-x-x-x-x-x-x-x-x-x-x-x-x-x-x-x-x-x-x-x-x-x-x-x-x-x-x-|
A|-2-2-2-2-2-2-2-4-4-4-4-4-4-4-4-4-4-4-4-4-4-4-4-5-5-5-5-|
E|-------------------------------------------------------|


e|-2--2-2-2-2--2-2--2-2-2-2--2-2--2-2-2-2--2-2--2-2-2-2-|
B|------------------------------------------------------|
G|------------------------------------------------------|
D|------------------------------------------------------|
A|------------------------------------------------------|
E|------------------------------------------------------|


e|----------------------------------------------------|
B|----------------------------------------------------|
G|-7-7-7-7-7-7-7-7-7-7-7-7-6------—-------------------|
D|-x-x-x-x-x-x-x-x-x-x-x-x-x--------------------------|
A|-5-5-5-5-5-5-5-5-5-5-5-5-4--------------------------|
E|----------------------------------------------------|
                            .


e|-2-2--2-2-2-2--2-2--2-2-2---2-2--2-2-2---2-2--2-2-2-|
B|----------------------------------------------------|
G|----------------------------------------------------|
D|--------------------------4------------5------------|
A|--------------------------4------------5------------|
E|--------------------------2------------3------------|

|Bridge|


e|-----------5------7~----------------------------------------------|
B|-------------5-----------------------------------------------10---|
G|-----4-6-7-----7----------------—----------------------6-7-9----9-|
D|------------------------------------------------------------------|
A|------------------------------------------------------------------|
E|------------------------------------------------------------------|


e|------------------------------------------------------------------|
B|------------------------------------------------------------------|
G|------------------------------------------------------------------|
D|-9-9-9--9-9-9--9-9-9--7-7--9-9-9--9-9-9--9-9-9--7-7--5-5-5--5-5-5-|
A|-9-9-9--9-9-9--9-9-9--7-7--9-9-9--9-9-9--9-9-9--7-7--5-5-5--5-5-5-|
E|-7-7-7--7-7-7--7-7-7--5-5--7-7-7--7-7-7--7-7-7--5-5--3-3-3--3-3-3-|


e|-----------------------------------------------5------7~--------|
B|----8-7----10-----7~-----------------------------5--------------|
G|-7------7-----9-7---------------—--------4-6-7-----7------------|
D|----------------------------------------------------------------|
A|----------------------------------------------------------------|
E|----------------------------------------------------------------|


e|----------------------------------------------------------------|
B|----------------------------------------------------------------|
G|----------------------------------------------------------------|
D|-5-5-5--7-7--5-5-5--5-5-5--5-5-5--7-7--9-9-9--9-9-9--9-9-9--7-7-|
A|-5-5-5--7-7--5-5-5--5-5-5--5-5-5--7-7--9-9-9--9-9-9--9-9-9--7-7-|
E|-3-3-3--5-5--3-3-3--3-3-3--3-3-3--5-5--7-7-7--7-7-7--7-7-7--5-5-|


e|------------------------------------------------------------------|
B|------------------------------------------------------------------|
G|--------------------------------—--8-7----8-7----10------7~-------|
D|-----------------------------6-7-9-----7------7-----9-7-----------|
A|------------------------------------------------------------------|
E|------------------------------------------------------------------|


e|------------------------------------------------------------------|
B|------------------------------------------------------------------|
G|------------------------------------------------------------------|
D|-9-9-9--9-9-9--9-9-9--7-7--5-5-5--5-5-5--5-5-5--7-7--5-5-5--5-5-5-|
A|-9-9-9--9-9-9--9-9-9--7-7--5-5-5--5-5-5--5-5-5--7-7--5-5-5--5-5-5-|
E|-7-7-7--7-7-7--7-7-7--5-5--3-3-3--3-3-3--3-3-3--5-5--3-3-3--3-3-3-|


e|-------------------------------------------------------|
B|-------------------------------------------------------|
G|--------------------------------—----------------------|
D|-------------------------------------------------------|
A|-------------------------------------------------------|
E|-------------------------------------------------------|


e|-------------------------------------------------------|
B|-------------------------------------------------------|
G|-------------------------------------------------------|
D|-5-5-5--7--9~-7~-5~-7~-9~-7~-x-x-x-x-x-x-x-x-x-x-x-x-x-|
A|-5-5-5--7--9~-7~-5~-7~-9~-7~-x-x-x-x-x-x-x-x-x-x-x-x-x-|
E|-3-3-3--5--7~-5~-3~-5~-7~-5~-x-x-x-x-x-x-x-x-x-x-x-x-x-|


e|---------------------------------|
B|---------------------------------|
G|---------------------------------|
D|---------------------------------|
A|---------------------------------|
E|---------------------------------|


e|---------------------------------|
B|---------------------------------|
G|---------------------------------|
D|-x-x-x-x-x-x-x-x-x-x-x-x-x-x-x-x-|
A|-x-x-x-x-x-x-x-x-x-x-x-x-x-x-x-x-|
E|-x-x-x-x-x-x-x-x-x-x-x-x-x-x-x-x-|

|PRECHORUS|


e|------------------------------------------------------------------|
B|-------------------------8~---------------------------------------|
G|-4-4-4-4-6-6-6-6-7-7-7-7-----7~-—4-4-4-4-6-6-6-6-7-7-7-7-7-7-xxxx-|
D|-x-x-x-x-x-x-x-x-x-x-x-x---------x-x-x-x-x-x-x-x-x-x-x-x-x-x-xxxx-|
A|-2-2-2-2-4-4-4-4-5-5-5-5---------2-2-2-2-4-4-4-4-5-5-5-5-5-5-xxxx-|
E|------------------------------------------------------------------|


e|------------------------------------------------------------------|
B|------------------------------------------------------------------|
G|------------------------------------------------------------------|
D|-5-5-5-5-7-7-7-7-9-9-9-9-9-9-9-9-5-5-5-5-7-7-7-7-9-9-9-9-9-9-xxxx-|
A|-5-5-5-5-7-7-7-7-9-9-9-9-9-9-9-9-5-5-5-5-7-7-7-7-9-9-9-9-9-9-xxxx-|
E|-3-3-3-3-5-5-5-5-7-7-7-7-7-7-7-7-3-3-3-3-5-5-5-5-7-7-7-7-7-7-xxxx-|

|CHORUS|


e|---------------2---------------------------------------|
B|-3---2-----3------------0---3~-------------------------|
G|--------------------2-----------—----------------------|
D|--------------------------------------------<7>--------|
A|-------------------------------------------------------|
E|-------------------------------------------------------|


e|-------------------------------------------------------|
B|-------------------------------------------------------|
G|-------------------------------------------------------|
D|-5-5-5-5-5-5-5-5-7-7-7-7-7-7-7-7-9-7-9-x-x-x-9-7-9-x-x-|
A|-5-5-5-5-5-5-5-5-7-7-7-7-7-7-7-7-9-7-9-x-x-x-9-7-9-x-x-|
E|-3-3-3-3-3-3-3-3-5-5-5-5-5-5-5-5-7-5-7-x-x-x-7-5-7-x-x-|
                                        .           .


e|-------------------2-----------------------------------|
B|-----3---2-----3------------0---3~---------------------|
G|------------------------2-------—----4-6-7~------------|
D|-------------------------------------x-x-x~------------|
A|-------------------------------------2-4-5~------------|
E|-------------------------------------------------------|


e|-------------------------------------------------------|
B|-------------------------------------------------------|
G|-------------------------------------------------------|
D|-x-x-5-5-5-5-5-5-5-5-7-7-7-7-7-7-7-7-9-7-5~------------|
A|-x-x-5-5-5-5-5-5-5-5-7-7-7-7-7-7-7-7-9-7-5~------------|
E|-x-x-3-3-3-3-3-3-3-3-5-5-5-5-5-5-5-5-7-5-3~------------|
Comments