Hawthorne Heights - Blue Burns Orange Chords & Tabs

 

Blue Burns Orange Chords & Tabs

Hawthorne Heights Chords & Tabs

Version: 2 Type: Tab

Blue Burns Orange Tab

   
-------------------------------------------------------------------------------
			     Blue Burns Orange - Hawthorne Heights
-------------------------------------------------------------------------------
Tabbed by:Ryan Mason
Email:XxBabyWareWolfxX@Aol.com

Tuning:Standard
[ Tab from: http://www.guitartabs.cc/tabs/h/hawthorne_heights/blue_burns_orange_tab_ver_2.html ]
e|-----------------------|
B|-----------------------|
G|--4--------------------|x 4
D|--4--4--4--4--4--4--4--|
A|--2--------------------|
E|-----------------------|
       .  .  .  .  .  .
e|---------7~----------------------------------------------------------------|
B|--7-5~-------7-5~----------------------------------------------------------|
G|------------------7-4-4-3-4~-----------------------------------------------|
D|---------------------------------------------------------------------------|
A|---------------------------------------------------------------------------|
E|---------------------------------------------------------------------------|
                            ^

| /  slide up
| \  slide down
| h  hammer-on
| p  pull-off
| ~  vibrato
| +  harmonic
| x  Mute note
===============================================================================