Hawthorne Heights - Blue Burns Orange Chords & Tabs

 

Blue Burns Orange Chords & Tabs

Hawthorne Heights Chords & Tabs

Version: 1 Type: Tab

Blue Burns Orange Tab

this is the first 44 seconds..i didn't have time to finish it but i will soon

ruthm guitar
e|------------------|
b|------------------|
g|------------------|
d|------------------|4x
a|-9---101010101010-|
e|-7---8-8-8-8-8-8--|

lead guitar
e|-------------------|
b|-------------------|
g|-----5-----5-4-3-4-|
d|-------------------|
a|-7--5--7--5--------|
e|-------------------|
[ Tab from: http://www.guitartabs.cc/tabs/h/hawthorne_heights/blue_burns_orange_tab.html ]
rythm and lead together
e|-----------------|       |------------------|
b|-----------------|       |------------------|
g|-----------------|       |------------------|
d|-----------------|5x plus|------------------|
a|9---101010101010-|       |-9---10101010/810-|
e|7---8-8-8-8-8-8--|       |-7---8-8-8-8/6-8--|  00:35

e|---------------------|
b|---------------------|
g|---------------------|
d|-6-8-7--6-7-8--6-7-8-|
a|---------------------|
e|---------------------|00:44