Hawthorne Heights - Blue Burns Orange Chords & Tabs

 

Hawthorne Heights Chords & Tabs

Version: 1 Type: Bass Tab 0 ratings
1 star 2 stars 3 stars 4 stars 5 stars
comments

Blue Burns Orange Bass Tab

Intro (0:06)
G|------------------------------------|
D|------------------------------------|
A|-----------------0000000000000000---|
E|3333333333333333--------------------|

Verse (x2)
G|--------------------------------------------------------------------|
D|--------------------------------------------------------------------|
A|2222222222222222-0000000000000000-----------------------------------|
E|----------------------------------3333333333333333-2222222233333333-|

Pre-Chorus
G|------------------------------|
D|------------------------------|
A|22------00--------------00----|
E|----------------33------------|

G|-----------------------------------|
D|-----------------------------------|
A|22------00--------------00000000---|
E|----------------33333333-----------|

Chorus
G|---------------------------|
D|---------------------------|
A|---------------------------|
E|33333333-55555555-757-757--|

G|---------------------------|
D|---------------------------|
A|---------------------------|
E|33333333-55555555-7-5-3~---|

Verse
G|----------------------------------------------|
D|----------------------------------------------|
A|222222222222--222222222222------------0000----|
E|------------23------------23-33333333-----23--|

G|--------------------------------------------------|
D|--------------------------------------------------|
A|222222222222--222222222222------------00000000----|
E|------------23------------23-33333333-------------|

Pre-Chorus
G|------------------------------|
D|------------------------------|
A|22------00--------------00----|
E|----------------33------------|

G|-----------------------------------|
D|-----------------------------------|
A|22------00--------------00000000---|
E|----------------33333333-----------|
[ Tab from: http://www.guitartabs.cc/tabs/h/hawthorne_heights/blue_burns_orange_btab.html ]
Chorus (x3)
G|---------------------------|
D|---------------------------|
A|---------------------------|
E|33333333-55555555-757-757--|

G|---------------------------|
D|---------------------------|
A|---------------------------|
E|33333333-55555555-7-5-3~---|

Bridge
G|------------------------------------------------------------|
D|------------------------------------------------------------|
A|2---------------0-------------------------------------------|
E|--------------------------------3---------------2-------3---| 

G|-------------------------------------------------------------|
D|-------------------------------------------------------------|
A|22222222222222220000000000000000-----------------------------|
E|--------------------------------33333333333333332-------3----|

(x2 for this part below but not the last part)
G|----------------------------------------------------------------|
D|----------------------------------------------------------------|
A|222-222-222-2222-22-222-222-00------------------------------00--|
E|-------------------------------3-33-333-333-3333-33-333-333-----| 

G|------------------------------------------------------------------------------------|
D|------------------------------------------------------------------------------------|
A|22~-----00~-------------00~-----22~-----00~----------------------0000000000000000---|
E|----------------33~-----------------------------3333333333333333--------------------|

G|---------------------------------------------------------------------|
D|---------------------------------------------------------------------|
A|---------------------------------------------------------------------|
E|3-3-3-3-5-5-5-5-7-7-7-7-7-7-7-7-3-3-3-3-5-5-5-5-7-7-7-7-7-7----------|

G|----------------------------------------------------------------------|
D|----------------------------------------------------------------------|
A|----------------------------------------------------------------------|
E|33333333-55555555-757-757-33333333-55555555-7-5-3~--------------------| 


Comments