Hawthorne Heights - Apparently Chords & Tabs

 

Hawthorne Heights Chords & Tabs

Version: 1 Type: Bass Tab 0 ratings
1 star 2 stars 3 stars 4 stars 5 stars
comments

Apparently Bass Tab

   
+++++++++++++++++++++++++++++++++
| Hawthorne Heights- Apparently |
+++++++++++++++++++++++++++++++++

(A Day In The Life)

Tuning: EADG

"Focus on nothing..."
1.
G|------------------------------------------|
D|------------------------------------------|
A|------------------------------------------|
E|------------------------------------------|

"Follow me closely..."
2.
G|--------------------------------------------------------------------------------|
D|---------------------5--------------------------5---------------------------5---|
A|-0~------------3~--3---3-0~--0~-----------3~--3---3-0~--0~------------3~--3---3-|
E|-----------1~----------------------12\1~--------------------------1~------------|

"Oh no, not again..."
3.
G|----------------------------------------------------------------------|
D|----------------------------------------------------------------------|
A|-3~----------0~----------3~----------0~----------3~----------0~-------|
E|-----1-1~--------3-3~--------1-1~--------3-3~--------1-1~--------3-3~-|

Outro
4.
G|------------------------------------------|
D|------------------------------------------|
A|-0~-----------------0~--------------------|
E|------------------------------------------|

Verse
"Black and blue, overtime..."
5.
G|-----------------------------------------------------------------------|
D|-----------------------------------------------------------------------|
A|-0000~--0000-00----------333/555/77-0000~--0000-00----------333/555/77-|
E|----------------1111~-11---------------------------1111~-11------------|

Pre-Chorus
6.
G|-----------------------------------------------------00000000-22222222-44444444-|
D|--------------------------------------------------------------------------------|
A|-7~------7h8-5~------5h7-3~------3h5-2~--22-33333333----------------------------|
E|--------------------------------------------------------------------------------|

Chorus
7.
G|---------------------------------------------------------------------|
D|---------------------------------------------------------------------|
A|-3~---------00----3~---------00----3~---------00-11-3~---------00----|
E|-------1-33----33-------1-33----33-------1-33-------------1-33----33-|
[ Tab from: http://www.guitartabs.cc/tabs/h/hawthorne_heights/apparently_btab.html ]
Verse
"These nighs are black and blue..."
8.
G|---------------------------------------------------------------------|
D|---------------------------------------------------------------------|
A|-0000000000000000-0000000000000000-0000000000000000-0000000000000000-|
E|---------------------------------------------------------------------|

"These nights..."
9.
G|-----------------------------------------------------------------------------|
D|--------5h7-77777777-33333333-33333355--------5h7-77777777-33333333-33333355-|
A|-000000--------------------------------000000--------------------------------|
E|-----------------------------------------------------------------------------|

Pre-Chorus
10.
G|-----------------------------------------------------00000000-22222222-44444444-|
D|--------------------------------------------------------------------------------|
A|-7~-7-7--7h8-5~-5-5--5h7-3~-3-3--3h5-2~-2-2-33333333----------------------------|
E|--------------------------------------------------------------------------------|

Chorus
11.
G|--------------------------------------5~-----------------------------|
D|---------------------------------------------------------------------|
A|-3~---------00----3~---------00----3~---------00-11-3~---------00----|
E|-------1-33----33-------1-33----33-------1-33-------------1-33----33-|

Outro
"Oh no, not again..."
12.
G|--------------------------------------------------------------------------------|
D|--------------------------------------------------------------------------------|
A|-0~--------3~----------0~----------3~----------0~----------3~----------0~-------|
E|-----3~--------1-1~--------3-3~--------1-1~--------3-3~--------1-1~--------3-3~-|

13.
G|------------------------------------------|
D|------------------------------------------|
A|-3~---------------------------------------|
E|------------------------------------------|

Lyrics:

Focus on nothing, only your face.
Follow me closely, into the night.
Just for one last time, turn out the light.
And if you wake up turn out the lights.

Oh no-not again.
My eyes are heavy again.
Please not tonight.

Black and blue, overtime
Lets see how far I can drift tonight.
Kissing you everyday
we'll never go this way again.

Just wake me when it's over
Just wake me when it's over

I'm not afraid to go afar with you.
The way the lights upon my arms and face
The ways the nights are made of me and you.

These nights are black and blue

+++++++++++++++++++++++++++++++++
| RaiLeff                       |
| Underground__Dora@Hotmail.Com |
+++++++++++++++++++++++++++++++++
Comments