Hawkwind - Silver Machine Chords & Tabs

 

Silver Machine Chords & Tabs

Hawkwind Chords & Tabs

Version: 1 Type: Tab 0 ratings
1 star 2 stars 3 stars 4 stars 5 stars
comments

Silver Machine Tab

e--------------------------------------------
b--------------------------------------------
g--------------------------------------------
d---------------------------------------------
a-7-7-9--7-7-7-9--7-7-7-9--7-7-7-9--------------
e-5-5-5--5-5-5-5--5-5-5-5--5-5-5-5-------------


e--------------------------------------------
b--------------------------------------------
g--------------------------------------------
d---------------------------------------------
a-9-9-11-9-9-9-11-9-9-9-11-9-9-9-11-----------
e-7-7-7--7-7-7-7--7-7-7-7--7-7-7-7-------------
[ Tab from: http://www.guitartabs.cc/tabs/h/hawkwind/silver_machine_tab.html ]
e--------------------------------------------
b--------------------------------------------
g--------------------------------------------
d---------------------------------------------
a-12-12-14--12-12-12-14--12-12-12-14--12-12-12-14---
e-10-10-10--10-10-10-10--10-10-10-10--10-10-10-10---

e--------------------------------------------
b--------------------------------------------
g--------------------------------------------
d---------------------------------------------
a-14-14-16--14-14-14-16--14-14-14-16--14-14-14-14--
e-12-12-12--12-12-12-12--12-12-12-12--12-12-12-12---

this is the whole song. have fun
Comments