Hawkwind - Master Of The Universe Chords & Tabs

 

Master Of The Universe Chords & Tabs

Hawkwind Chords & Tabs

Version: 2 Type: Tab

Master Of The Universe Tab

   
Begins With Wah, there are many different versions to this song, this is a Hawkwind 
intro, works best with sweepeing keyboard noises etc.

e-|---------------------------|
b-|---------------------------|
g-|---------------------------|
d-|-3/5555555-777777-10-12-14-|
a-|-3/5555555-777777-10-12-14-|
E-|-1/3333333-555555--8-10-12-|

(Bass riff comes in)

Bass-

g-|------------------------------------------------|
d-|---------------------------5-6-7-5------5-----7-|
a-|-5/7-7-7-7-5/7-7-7-7-5-6-7--------7-------------|
E-|--------------------------------------3--3-3/5--|


Main Guitar Riff
[ Tab from: http://www.guitartabs.cc/tabs/h/hawkwind/master_of_the_universe_tab_ver_2.html ]
e-|-----------------------------------------------|
b-|-----------------------------------------------|
g-|-7/9-9-9-9-7/9-9-9-9-7/9-9-9-9-5-5-5-5-7-7-7-7-|
d-|-7/9-9-9-9-7/9-9-9-9-7/9-9-9-9-5-5-5-5-7-7-7-7-|
a-|-5/7-7-7-7-5/7-7-7-7-5/7-7-7-7-3-3-3-3-5-5-5-5-|
E-|-----------------------------------------------|

End Chorus

Bass-

g-|---------------------------------|
d-|----------------------7-5--------|
a-|--------------------------7-5-3--|
E-|-3-3-3-3-5-5-5-5-7-------------5-|


Guitar is the same but first part is chorded

e-|---------------------------------|
b-|---------------------------------|
g-|---------------------------------|
d-|----------------------7-5--------|
a-|-5-5-5-5-7-7-7-7-9--------7-5-3--|
E-|-3-3-3-3-5-5-5-5-7-------------5-|


Whole thing repeats for a hell of a long time!

Add lightning an keyboards etc for a huge Hawkwind stylee song, oh and phasers on guitars and vocals!