Hawkwind - Master Of The Universe Chords & Tabs

 

Master Of The Universe Chords & Tabs

Hawkwind Chords & Tabs

Version: 1 Type: Tab 1 rating
1 star 2 stars 3 stars 4 stars 5 stars
comments

Master Of The Universe Tab

   
##################################################################################
# This file is the author's own work and represents their interpretation of the  #
# song. You may only use this file for private study, scholarship, or research.  #
##################################################################################

I tabbed this out after my pleas for the tab fell on deaf ears
It is just the rhythmn guitar part. If anyone can tab the Synth,Sax
solo, that would finish it off. I will put in bass part later.
Any comments PM me Frankyz84, and i will do my best to ignore you.
Meanwhile, have fun. tis a great song, from the Space Rockers. 



              MASTER OF THE UNIVERSE  by  HAWKWIND


INTRO
  Eb
|-6---6---6-6-6--|-6---6---6-6-6--|-6---6---6-6-6--|-6---6---6-6-6--|
|-8---8---8-8-8--|-8---8---8-8-8--|-8---8---8-8-8--|-8---8---8-8-8--|
|-8---8---8-8-8--|-8---8---8-8-8--|-8---8---8-8-8--|-8---8---8-8-8--|
|-8---8---8-8-8--|-8---8---8-8-8--|-8---8---8-8-8--|-8---8---8-8-8--|
|-6---6---6-6-6--|-6---6---6-6-6--|-6---6---6-6-6--|-6---6---6-6-6--|
|----------------|----------------|----------------|----------------|
  1 + 2 + 3 + 4 +  1 + 2 + 3 + 4 +  1 + 2 + 3 + 4 +  1 + 2 + 3 + 4 +  

  Eb                                B       C#      Eb              x4 
||-6---6---6-6-6--|-6---6---6-6-6--|-2-2-2---4-4-4-|-6---6---6-6-6--||
||-8---8---8-8-8--|-8---8---8-8-8--|-4-4-4---6-6-6-|-8---8---8-8-8--||
|*-8---8---8-8-8--|-8---8---8-8-8--|-4-4-4---6-6-6-|-8---8---8-8-8--*|
|*-8---8---8-8-8--|-8---8---8-8-8--|-4-4-4---6-6-6-|-8---8---8-8-8--*|
||-6---6---6-6-6--|-6---6---6-6-6--|-2-2-2---4-4-4-|-6---6---6-6-6--||
||----------------|----------------|---------------|----------------||
  1 + 2 + 3 + 4 +  1 + 2 + 3 + 4 +  1 + 2 + 3 + 4 +  1 + 2 + 3 + 4 +  


VERSE 1
  Eb                                B       C#      Eb              x7
||-6---6---6-6-6--|-6---6---6-6-6--|-2-2-2---4-4-4-|-6---6---6-6-6--||
||-8---8---8-8-8--|-8---8---8-8-8--|-4-4-4---6-6-6-|-8---8---8-8-8--||
|*-8---8---8-8-8--|-8---8---8-8-8--|-4-4-4---6-6-6-|-8---8---8-8-8--*|
|*-8---8---8-8-8--|-8---8---8-8-8--|-4-4-4---6-6-6-|-8---8---8-8-8--*|
||-6---6---6-6-6--|-6---6---6-6-6--|-2-2-2---4-4-4-|-6---6---6-6-6--||
||----------------|----------------|---------------|----------------||
  1 + 2 + 3 + 4 +  1 + 2 + 3 + 4 +  1 + 2 + 3 + 4 +  1 + 2 + 3 + 4 +  

[ Tab from: http://www.guitartabs.cc/tabs/h/hawkwind/master_of_the_universe_tab.html ]
F#               G#               Bb  (Let ring)
|-2~~~~~~~~~~~~--|-4~~~~~~~~~~~~--|-6~~~~~~~~~~~~--|-(6)~~~~~~~-----||
|-2~~~~~~~~~~~~--|-4~~~~~~~~~~~~--|-6~~~~~~~~~~~~--|-(6)~~~~~~~-----||
|-3-~~~~~~~~~~~--|-5~~~~~~~~~~~~--|-7~~~~~~~~~~~~--|-(7)~~~~~~~-----||
|-4~~~~~~~~~~~~--|-6~~~~~~~~~~~~--|-8~~~~~~~~~~~~--|-(8)~~~~~~~-----||
|-4~~~~~~~~~~~~--|-6~~~~~~~~~~~~--|-8~~~~~~~~~~~~--|-(8)~~~~~~~-----||
|-2~~~~~~~~~~~~--|-4~~~~~~~~~~~~--|-6~~~~~~~~~~~~--|-(6)~~~~~~~-----||
  1 + 2 + 3 + 4 +  1 + 2 + 3 + 4 +  1 + 2 + 3 + 4 +  1 + 2 + 3 + 4 + 


RHYTHM FOR SYNTH/SAX SOLO
  Eb
|-6---6---6-6-6--|-6---6---6-6-6--|-6---6---6-6-6--|-6---6---6-6-6--|
|-8---8---8-8-8--|-8---8---8-8-8--|-8---8---8-8-8--|-8---8---8-8-8--|
|-8---8---8-8-8--|-8---8---8-8-8--|-8---8---8-8-8--|-8---8---8-8-8--|
|-8---8---8-8-8--|-8---8---8-8-8--|-8---8---8-8-8--|-8---8---8-8-8--|
|-6---6---6-6-6--|-6---6---6-6-6--|-6---6---6-6-6--|-6---6---6-6-6--|
|----------------|----------------|----------------|----------------|
  1 + 2 + 3 + 4 +  1 + 2 + 3 + 4 +  1 + 2 + 3 + 4 +  1 + 2 + 3 + 4 +  

  Eb                                B       C#      Eb             x15  
||-6---6---6-6-6--|-6---6---6-6-6--|-2-2-2---4-4-4-|-6---6---6-6-6--||
||-8---8---8-8-8--|-8---8---8-8-8--|-4-4-4---6-6-6-|-8---8---8-8-8--||
|*-8---8---8-8-8--|-8---8---8-8-8--|-4-4-4---6-6-6-|-8---8---8-8-8--*|
|*-8---8---8-8-8--|-8---8---8-8-8--|-4-4-4---6-6-6-|-8---8---8-8-8--*|
||-6---6---6-6-6--|-6---6---6-6-6--|-2-2-2---4-4-4-|-6---6---6-6-6--||
||----------------|----------------|---------------|----------------||
  1 + 2 + 3 + 4 +  1 + 2 + 3 + 4 +  1 + 2 + 3 + 4 +  1 + 2 + 3 + 4 +  

  F#               G#               Bb  (Let ring)
|-2~~~~~~~~~~~~--|-4~~~~~~~~~~~~--|-6~~~~~~~~~~~~--|-(6)~~~~~~~-----||
|-2~~~~~~~~~~~~--|-4~~~~~~~~~~~~--|-6~~~~~~~~~~~~--|-(6)~~~~~~~-----||
|-3-~~~~~~~~~~~--|-5~~~~~~~~~~~~--|-7~~~~~~~~~~~~--|-(7)~~~~~~~-----||
|-4~~~~~~~~~~~~--|-6~~~~~~~~~~~~--|-8~~~~~~~~~~~~--|-(8)~~~~~~~-----||
|-4~~~~~~~~~~~~--|-6~~~~~~~~~~~~--|-8~~~~~~~~~~~~--|-(8)~~~~~~~-----||
|-2~~~~~~~~~~~~--|-4~~~~~~~~~~~~--|-6~~~~~~~~~~~~--|-(6)~~~~~~~-----||
  1 + 2 + 3 + 4 +  1 + 2 + 3 + 4 +  1 + 2 + 3 + 4 +  1 + 2 + 3 + 4 + 


VERSE 2
  Eb                                B       C#      Eb              x7
||-6---6---6-6-6--|-6---6---6-6-6--|-2-2-2---4-4-4-|-6---6---6-6-6--||
||-8---8---8-8-8--|-8---8---8-8-8--|-4-4-4---6-6-6-|-8---8---8-8-8--||
|*-8---8---8-8-8--|-8---8---8-8-8--|-4-4-4---6-6-6-|-8---8---8-8-8--*|
|*-8---8---8-8-8--|-8---8---8-8-8--|-4-4-4---6-6-6-|-8---8---8-8-8--*|
||-6---6---6-6-6--|-6---6---6-6-6--|-2-2-2---4-4-4-|-6---6---6-6-6--||
||----------------|----------------|---------------|----------------||
  1 + 2 + 3 + 4 +  1 + 2 + 3 + 4 +  1 + 2 + 3 + 4 +  1 + 2 + 3 + 4 +  


F#               G#               Bb  (Let ring)
|-2~~~~~~~~~~~~--|-4~~~~~~~~~~~~--|-6~~~~~~~~~~~~--|-(6)~~~~~~~-----||
|-2~~~~~~~~~~~~--|-4~~~~~~~~~~~~--|-6~~~~~~~~~~~~--|-(6)~~~~~~~-----||
|-3-~~~~~~~~~~~--|-5~~~~~~~~~~~~--|-7~~~~~~~~~~~~--|-(7)~~~~~~~-----||
|-4~~~~~~~~~~~~--|-6~~~~~~~~~~~~--|-8~~~~~~~~~~~~--|-(8)~~~~~~~-----||
|-4~~~~~~~~~~~~--|-6~~~~~~~~~~~~--|-8~~~~~~~~~~~~--|-(8)~~~~~~~-----||
|-2~~~~~~~~~~~~--|-4~~~~~~~~~~~~--|-6~~~~~~~~~~~~--|-(6)~~~~~~~-----||
  1 + 2 + 3 + 4 +  1 + 2 + 3 + 4 +  1 + 2 + 3 + 4 +  1 + 2 + 3 + 4 + 
Comments