Hawksley Workman - Smoke Baby Chords & Tabs

 

Smoke Baby Chords & Tabs

Hawksley Workman Chords & Tabs

Version: 2 Type: Chords 0 ratings
1 star 2 stars 3 stars 4 stars 5 stars
comments

Smoke Baby Chords

Smoke baby by Hawksley Workman @ Ultimate-Guitar.com

intro: --2-------2------2-----2------1-----------------------|
       --2-------3------2-----3------2-----------------------|
       --2--15x--4--15x-2-15x-4--7x--1--7x-------------------|
       --4-------4------4-----4------3-----------------------|
       --4-------2------4-----2------------------------------|
       --2-------2------2-----2------------------------------|
       (1x for the intro)


verse : same thing for the verse (listen to song for the exact thing)

[ Tab from: http://www.guitartabs.cc/tabs/h/hawksley_workman/smoke_baby_crd_ver_2.html ]
chorus : even the same thing for the chorus (listen to song for the exact thing)

then there is a time where I don't know who raps, but it sucks like (...)

and for the outro i'm not 100% sure but play something like this

      --7/9-7-9-9/10-9-7----------------|
      ----------------------------------|
      ----------------------------------|
      ----------------------------------|
      ----------------------------------|
      ----------------------------------|

during the outro there is a couple of fils that I couldn't figer out but what the heck...
Comments