Hawksley Workman - Anger As Beauty Chords & Tabs

 

Anger As Beauty Chords & Tabs

Hawksley Workman Chords & Tabs

Version: 1 Type: Tab 0 ratings
1 star 2 stars 3 stars 4 stars 5 stars
comments

Anger As Beauty Tab

Link to the album http://www.amazon.co.uk/exec/obidos/ASIN/B0000DBPHG/
                  qid%3D1066051947/sr%3D2-1/ref%3Dsr%5F2%5F3%5F1/026-7816082-0968454

TempoTantrum requested this one in Tab Talk so I had a go at it.  The mp3 I
downloaded had quite a bit of scrambling in it and it wasn't the whole song
(stopped around 3:30 through).
Well I've tabbed it in standard tuning

|-5-5-5-------
|-5-5-5-----5-
|-7-7-7-----5-
|-7-7-7-x-x-5-
|-5-5-5-x-x-3-
|-------------
The third D5 is a brisk upstroke, high e string is optional

|--------------------
|--------------------
|-10-10-10-----10-10-
|-10-10-10-x-x-10-10-
|-8--8--8--x-x-8--7--
|--------------------

|--------------------------------------
|--------------------------------------
|--------------------12-12-12-------12-
|-10-10-10-------10--12-12-12-x-x-x-12-
|-10-10-10-x-x-x-10--10-10-10-x-x-x-10-
|-8--8--8--x-x-x-8---------------------

Then my mp3 of the song is scrambled till "Ahh, mount your..."

|-12---
|-15^--
|------
|------
|------
|------
[ Tab from: http://www.guitartabs.cc/tabs/h/hawksley_workman/anger_as_beauty_tab.html ]
Guitar 1 plays the first 3 parts again, in comes guitar 2 (at 1 minute through) with....

|-x-x-5-5-x-x-5-5-x-x-5-5-x-x-5-5-
|-x-x-6-6-x-x-6-6-x-x-6-6-x-x-6-6-
|---------------------------------
|---------------------------------
|---------------------------------
|---------------------------------

Guitar 1 plays the same groups of chords under guitar 2

"This is anger as beauty......."
|-10-------8----
|-10-------8----
|-10-------9----
|-12-------10---
|-12-------10---
|-10-------8---- strum away at those.  There may be another chord in there somewhere.

|-------------------
|-------------------
|-9-9-9-9-9-9-9-9-9-
|-------------------
|-------------------
|-------------------
Guitar 2 plays the above bent 1/4 note (it sounds like) over and over.

Sorry, that's about all I have of the actual song, I thought I had downloaded the
whole thing but apparently not. Hope parts are just repeated still and that it's
right. It didn't sound overly bad when I was working it out but there may be a
few mistakes.
any questions? andrewbiles@hotmail.com
Comments