Hawks - Wish Chords & Tabs

 

Wish Chords & Tabs

Hawks Chords & Tabs

Version: 1 Type: Tab 0 ratings
1 star 2 stars 3 stars 4 stars 5 stars
comments

Wish Tab

   
The Hawks --- The Wish !!!!
One of the best songs, I think ;) !!!
mail: ben_hawk@web.de >>> so contact me if there are problems

Intro:
Benedikt plays this first.
e|----------------------------------------------------|
b|----------------------------------------------------|
g|----------------------------------------------------| 3x
d|-------14-----------14---------10-----------12------|
a|----------14-----------14---------10-----------12---|
E|-12-12--------12-12--------8-8--------10-10---------|

[ Tab from: http://www.guitartabs.cc/tabs/h/hawks/wish_tab.html ]
Main Riff (Markus):
   E5                         C5          D5
e|----------------------------------------------------|
b|----------------------------------------------------|
g|----------------------------------------------------|
d|-14-14-14-14-14-14-14-14---10-10-10-10--12-12-12-12-|
a|-14-14-14-14-14-14-14-14---10-10-10-10--12-12-12-12-|
E|-12-12-12-12-12-12-12-12----8-8--8--8---10-10-10-10-|


Chorus-Riff (Benedikt):
e|----------------------------------------------------|
b|---8h10p8--8\7----------------------8-8p7-----------|
g|-9--------------7/9-9-7-9--9--9-9-7--------9p7------|
d|-9--------------------------------------------------|
a|----------------------------------------------------|
E|----------------------------------------------------|

I'm to lazy to figure out my OWN solo *lool* but it's coming soon, I'm sure!!! ^^
Comments