Haven Will - Carpe Diem Chords & Tabs

 

Carpe Diem Chords & Tabs

Haven Will Chords & Tabs

Version: 1 Type: Bass Tab 0 ratings
1 star 2 stars 3 stars 4 stars 5 stars
comments

Carpe Diem Bass Tab

   
Will Haven - Carpe Diem

Carpe Diem



Standard tuning (B,E,A,D,G)

G|------------------||-------------------|------------------||------------------||
D|------------------||-------------------|------------------||------------------||
A|------------------||-------------------|------------------||------------------||
E|------------------||-------------------|------------------||------------------||
B|-2--2--2--2---3\1-||---000000000000----|-2--2--2--2---3\1-||--0-0-0---3-3-3---||


G|-------------------|-------------------|-------------------|-------------------|
D|-------------------|-------------------|-------------------|-------------------|
A|-------------------|-------------------|-------------------|-------------------|
E|-------------------|-------------------|-------------------|-------------------|
B|---666666-000000---|-2--2--2--2---3\1--|--2--2--2--2---3---|---000000-666666---|

[ Tab from: http://www.guitartabs.cc/tabs/h/haven_will/carpe_diem_btab.html ]
G|-------------------|-------------------|-------------------|-------------------|
D|-------------------|-------------------|-------------------|-------------------|
A|-------------------|-------------------|-------------------|-------------------|
E|-------------------|-------------------|-------------------|-------------------|
B|-2--2--2--2---3\1--|--2--2--2--2---3---|---000000-666666---|-2--2--2--2---3\1--|


G|-------------------|-------------------|-------------------|-------------------|
D|-------------------|-------------------|-------------------|-------------------|
A|-------------------|-------------------|-------------------|-------------------|
E|-------------------|-------------------|-------------------|-------------------|
B|--2--2--2--2---3---|---000000-666666---|-2--2--2--2---3\1--|--2--2--2--2---3---|


G|------------------||------------------||------------------||
D|------------------||------------------||------------------||
A|------------------||------------------||------------------||
E|------------------||------------------||------------------||
B|--000000-666666---||--0-0-0---3-3-3---||-5-5-5-5/8-8\4-4--||


G|--------------------------------------||------------------||
D|--------------------------------------||------------------||
A|--------------------------------------||------------------||
E|--------------------------------------||------------------||
B|---0--00-03--3-3-0--00-03--32-21-0----||---5-3-2-1-0000---||



weenoid@hotmail.com
Comments