Haunted - Leech Chords & Tabs

 

Leech Chords & Tabs

Haunted Chords & Tabs

Version: 1 Type: Tab 0 ratings
1 star 2 stars 3 stars 4 stars 5 stars
comments

Leech Tab

   
                T H E   H A U N T E D   -   L E E C H
               From the Album THE HAUNTED MADE ME DO IT
                    Copyright 2000 EARACHE RECORDS 
                      
                        Version 2.0 - June 2002                        


Version 1.0 by : Lalith Vipulananthan (singularitymetaltab@hotmail.com)
Version 2.0 corrected, rewritten and lead part added by : SyM - [unDEAD]

For Questions, Comments, Newest Version, or Corrections contact
         Lalith Vipulananthan:  singularitymetaltab@hotmail.com
               SyM - [unDEAD]:  bullethole@tin.it


.  - palm mute                  /  - slide up to
\  - slide down to              ~  - vibrato
"  - tremelo picking           ( ) - ghost note
b  - bend                       h  - hammer-on
fb - full bend (1 step)         p  - pull-off
hb - half bend (1/2 step)       r  - release a bend
t  - tapping                    ah - artificial harmonic

Tuning : half step down - Eb Ab Db Gb Bb Eb

-- LEECH --

[Riff A] x4   
                                        ___________ _____________
                                       |1-3.       |2-4.         ]
[--------------------------------------|-----------|-------------]
[--------------------------------------|-----------|-------------]
[*------------------------------------*|-----------|-------------] 
[*------------------------------------*|-----------|-------------] Gtr I+II
[--------------------------------------|-----------|-2-2--5-5--2-]
[--2222222222b(3)22222222222222222222--|-6-3h6p3-0-|-0-0--3-3--0-]


[Riff B] x4
                                               ___________________ ______________
                                              |1-3.               |2-4.          |
[---------------------------------------------|-------------------|--------------]
[---------------------------------------------|-------------------|--------------]          
[*-------------------------------------------*|-------------------|-------------*]
[*-7-7-7-7-7-7-8-8-8-8-8-8-10-10-10-10-10-10-*|-13-13-13-13-13-13-|-6-6-6-6-6-6-*] Gtr I+II
[---------------------------------------------|-------------------|--------------]
[--5-5-5-5-5-5-6-6-6-6-6-6--8--8--8--8--8--8--|-11-11-11-11-11-11-|-4-4-4-4-4-4--]



[Riff A] x4

[Riff B2] x4
4th time, different ending :
 ________________________
|4.                      |
[------------------------]
[------------------------]               
[*----------------------*]
[*-15-15-15-15-15-15-15-*] Gtr I+II
[------------------------]
[--13-13-13-13-13-13-13--]


[Riff C] x4
                  _______________ ____________ ____________
                 |1-3.           |2.          |4.          |
[----------------|---------------|------------|------------]
[----------------|---------------|------------|------------]
[*---------------|---------------|------------|-----------*]
[*-----------2---|---------------|------------|-----------*] Gtr I+II
[--2---1-2-----3-|---1-2---------|-2-3--3\5-5-|-2-3--2-1---] 
[--0-0-----0-----|-0-----0-1h3p1-|---1--1\3-3-|---1------3-]
|    .     .       .     .                                 |
[----------------------------------------------------------]
[---*------------------------------------------------------]
[*--9~-------------(9)------------(9)---------------------*]
[*--------------------------------------------------------*] Gtr III
[----------------------------------------------------------]
[----------------------------------------------------------]
    *let ring the note E


[Riff A] x4

[Riff B2] x4

[Riff C2] x4
4th time, different ending :
 ________________________________________________
|4.                                              |
[------------------------------------------------]
[------------------------------------------------]
[*----------------------------------------------*]
[*----------------------------------------------*] Gtr I+II
[--2-3--3\5-5---3-3-3-3/5---3--3-3/5--3-3-3-3/5--]
[----1--1\3-3---1-1-1-1/3---1--1-1/3--1-1-1-1/3--]
                . . .                 . . . 


[Bridge]                   

[--------------------------------------------------]
[--------------------------------------------------]
[--------------------------------------------------]
[*-----2-----2-----2-----2-----2-----2-----2-----2-] Gtr I
[*-----2-----2-----2-----2-----2-----2-----2-----2-] 
[--0-0---0-0---0-0---0-0---0-0---0-0---0-0---0-0---]
|  . .   . .   . .   . .   . .   . .   . .   . .
|					   
[--------------------------------------------------]
[--------------------------------------------------]
[*-------------------------------------------------]
[*-------------------------------------------------] Gtr II
[--2-----------------------------------------------] 
[--0-----------------------------------------------]


[-------------------------------------------------]
[-------------------------------------------------]
[-------------------------------------------------]
[-----2-----2-----2-----2-----2-----2-----2-----2-] Gtr I
[-----2-----2-----2-----2-----2-----2-----2-----2-] 
[-0-0---0-0---0-0---0-0---0-0---0-0---0-0---0-0---]
| . .   . .   . .   . .   . .   . .   . .   . .
|					   
[-------------------------------------------------]
[-------------------------------------------------]
[-------------------------------------------------]
[-------------------------------------------------] Gtr II
[-------------------------------------------------]
[-0-0-0-0-0-0-0-0-0-0-0-0-0-0-0-0-0-0-0-0-0-0-0-0-]
  . . . . . . . . . . . . . . . . . . . . . . . . 


[Riff D] 
[-------------------------------------------------------------------------------------------------]
[-------------------------------------------------------------------------------------------------]
[-------------------------------------------------------------------------------------------------]
[-----2-----2-----2-----2-----2-----2-5-5-5-5-4-3-----2-----2-8-8-8-8-7-5-----2-----2-7-7-7-7-3-5-] Gtr I+II
[-----2-----2-----2-----2-----2-----2-----------------2-----2-----------------2-----2-------------]
[-0-0---0-0---0-0---0-0---0-0---0-0---3-3-3-3-2-1-0-0---0-0---6-6-6-6-5-3-0-0---0-0---5-5-5-5-1-3-]
  . .   . .   . .   . .   . .   . .               . .   . .               . .   . . 

[-----------------------------------------------------------------------------------------------------]
[-----------------------------------------------------------------------------------------------------]
[-----------------------------------------------------------------------------------------------------]
[-----2-----2-----2-----2-----2-----2-5-5-5-5-4-3-----2-----2-8-8-8-8-7-5-----2-----2-10-10-10-10-9-7-] Gtr I+II
[-----2-----2-----2-----2-----2-----2-----------------2-----2-----------------2-----2-----------------] 
[-0-0---0-0---0-0---0-0---0-0---0-0---3-3-3-3-2-1-0-0---0-0---6-6-6-6-5-3-0-0---0-0----8--8--8--8-7-5-]
  . .   . .   . .   . .   . .   . .               . .   . .               . .   . .     


[Riff C-bis] x4        
                  _______________ _____________ 
                 |1-3.           |2-4.         |
[----------------|---------------|-------------]
[----------------|---------------|-------------]
[*---------------|---------------|------------*]
[*-----------4---|---------------|------------*] Gtr I+II
[--4---4-3-----5-|---4-3---------|-4-5--5\7-7--] 
[--2-2-----2-----|-2-----2-3h5p3-|---3--3\5-5--]
     .     .       .     .                                 

LEAD PART :
[ Tab from: http://www.guitartabs.cc/tabs/h/haunted/leech_tab.html ]
[Riff E] x2 					    
[---------------------------------------------------------------------------]
[---------------------------------------------------------------------------]
[*-------------------------------------------------------------------------*]
[*-------2~-------2~-------2~-------4~-------5~------4~--5-----------------*] Gtr I+II
[-------------------------------------3-3-3----3-3-3--------------5---------]
[--0-0-0----0-0-0----0-0-0---0-0-0-------------------------7-5-7~---7-5-7~--]
   . . .    . . .    . . .   . . .   . . .   . . .       


[Riff E2] x2
[---------------------------------------------------------------------------]
[---------------------------------------------------------------------------]
[*-------------------------------------------------------------------------*]
[*-------2~-------2~-------2~-------4~-------5~------4~--5-----------------*] Gtr I
[-------------------------------------3-3-3----3-3-3--------------5---------]
[--0-0-0----0-0-0----0-0-0---0-0-0-------------------------7-5-7~---7-5-7~--]
|  . . .    . . .    . . .   . . .   . . .   . . .                          |
|                                                                           |
[---------------------------------------------------------------------------]
[---------------------------------------------------------------------------]
[*---------------------------4--------5-------(5)--------4-------(4)-------*]
[*-2--------4--------5-------4--------5-------(5)--------4-------(4)-------*] Gtr II
[--2--------4--------5-------2--------3-------(3)--------2-------(2)--------]
[--0--------2--------3------------------------------------------------------]
|                                                                           |
|                                                                           |
[--------0--------0-------0--------0------------0------------------0--------]
[-----0--------0-------0--------0----------0---------0--------0--------0----]
[*-------------------------------------------------------------------------*] Gtr III
[*---------------------------4--------5------------------4-----------------*] (clean)
[--2--------4--------5-------2--------3------------------2------------------] let ring
[--0--------2--------3------------------------------------------------------]

2nd time, different ending:
[-----------------------]
[-----------------------]
[-----------------------]
[-5---------------------] Gtr I
[----------5------------]
[---7-5-7~---7-5-7-5-3--]


 __________________________________________________________________________________
[                                                                                  ]

Lead - Gtr IV
[----------------------------------------------------------------------]
[--------------------17-15----15~---15-13----13~---13-12----12~---13~--]
[*-------------------------16-------------14-------------12-----------*]
[*----------14-16-17--------------------------------------------------*]
[--14-16-17------------------------------------------------------------]
[----------------------------------------------------------------------]
   pm-----|

[---------------------------------------------------------]
[--13~-12~------------------------------------------------]
[*----------12-11-9-8~--9~--11~--12~---------------------*]
[*-------------------------------------------------------*]
[-----------------------------------14--12~---14p12-14~---]
[---------------------------------------------------------]
                                                               _____ ____________
                                                              |1.   |2.          | 
[-------------------------------------------------------------|-----|------------]
[-----------------------------12--10--12~--13--10~--13-----13-|-----|------12~---]
[*--11b(12)--9~--11b(12)--9~---------------------------12~----|-----|-8~---9~---*]
[*------------------------------------------------------------|-13~-|-----------*]
[-------------------------------------------------------------|-----|------------]
[-------------------------------------------------------------|-----|------------]
                                                                            
[____________________________________________________________________________________]


[Riff C2] x4

[Arpeggio] under Riff C2
[---------------------------------------------|-------------------------------------------]
[---------12--------12---------12---------12--|-------12--------12---------12---------12--]
[*-----9---------9----------9----------9------|----9---------9----------9----------9-----*]
[*--9---------9---------10---------12---------|-9---------9---------10---------10--------*]
[---------------------------------------------|-------------------------------------------]
[---------------------------------------------|-------------------------------------------]

[---------------------------------------------|--------------------------------]
[---------12--------12---------12---------12--|-------12--------12---------12--]
[*-----9---------9----------9----------9------|----9---------9----------9-----*]
[*--9---------9---------10---------12---------|-9---------9---------10--------*]
[---------------------------------------------|--------------------------------]
[---------------------------------------------|--------------------------------]

[---------------------------------------------------------]
[-----------13----------13----------13----------13--------]
[*------10----------10----------10----------10-----------*]
[*--10----------10----------10----------10----------10---*] Gtr V
[---------------------------------------------------------]
[---------------------------------------------------------]




[Fill 1]
	
[--------------------------------]
[--------------------------------]
[*------------------------------*]
[*------------------------------*] Gtr I+II
[-3----(3)----(3)----(3)---------]
[-1----(1)----(1)----(1)--6-5-3--]




[Riff F]  x2			       

[---------------------------------------------------------------------]
[---------------------------------------------------------------------]
[*-------------------------------------------------------------------*]
[*-8b(9)---------10-----------8b(9)-------------10-10-10-----7-7-7\8-*] Gtr I
[-----------2-----------2--------------2---------8--8--8-----5-5-5\6--]
[--6b(7)----0-----8-----0-----6b(7)----0-----0------------0-----------]
|                                            .            .           |
|					                              |
[-----------0----(0)---(0)-------------0------------------------------]
[-----------0----(0)---(0)-------------0------------------------------]
[*-------------------------------------------------------------------*]
[*-8b(9)----------------------8b(9)-------------10-10-10-----7-7-7\8-*] Gtr II
[------------------------------------------------8--8--8-----5-5-5\6--]
[--6b(7)----------------------6b(7)----------0------------0-----------]
                                                         
                                            


[Riff F2] - fade out

[-----------------------------------------------------------------------------------------]
[-----------------------------------------------------------------------------------------]
[*---------------------------------------------------------------------------------------*]
[*-8b(9)----------------------------------8b(9)---------------------10-10-10-----7-7-7\8-*] Gtr I+II
[---------------------2----------------------------------------------8--8--8-----5-5-5\6--]
[--6b(7)--0000000000000----0000000000000--6b(7)--0000000000000---0------------0-----------]
          pm----------|    pm----------|         pm----------|   .            .
 

check out unDEAD - european thrashmetal - http://bite.to/undead
Comments