Hatebreed - Worlds Apart Chords & Tabs

 

Worlds Apart Chords & Tabs

Hatebreed Chords & Tabs

Version: 1 Type: Tab 0 ratings
1 star 2 stars 3 stars 4 stars 5 stars
comments

Worlds Apart Tab

Bass intro
1||-----------------|-----------------|-----------------|-----------------|
2||-----------------|-----------------|-----------------|-----------------|
3||-----------------|-----------------|-----------------|-----------------|
4||-----------------|-----------------|-----------------|-----------------|
5||-----------------|-----------7---7-|-8-8---8-8-8---8-|-----------------|
6||-0-0---0-0-0---0-|-0-0---0-6-------|-----------------|-7-6---6-6-6---6-|


1||-------------------|-----------------|-----------------|-----------------------||
2||-------------------|-----------------|-----------------|-----------------------||
3||-------------------|-----------------|-----------------|-----------------------||
4||-------------------|-----------------|-----------------|-----------------------||
5||-(/7~)-------------|-----------7---7-|-8-8---8-8-8---8-|-10-10---10-10-10---10-||
6||---0-0---0-0-0---0-|-0-0---0-6-------|-----------------|-----------------------||

              "Conditioned to feel nothing..."
1||---------||-----------------|-----------------|-----------------------|-----------------|
2||---------||-----------------|-----------------|-----------------------|-----------------|
3||---------||-----------------|-----------------|-----------------------|-----------------|
4||---------||-----------------|-----------9---9-|-10-10---10-10-10---10-|-----------------|
5||-2--2-x\-||---2-------2-----|---2-----8-7---7-|--8--8----8--8--8----8-|-9-8---8-8-8---8-|
6||-0--0-x\-||-0-0---0-0-0---0-|-0-0---0-6-------|-----------------------|-7-6---6-6-6---6-|

[ Tab from: http://www.guitartabs.cc/tabs/h/hatebreed/worlds_apart_tab.html ]
1||-----------------|-----------------|-----------------------|-----------------------||
2||-----------------|-----------------|-----------------------|-----------------------||
3||-----------------|-----------------|-----------------------|-----------------------||
4||-----------------|-----------9---9-|-10-10---10-10-10---10-|-12-12---12-12-12---12-||
5||---2-------2-----|---2-----8-7---7-|--8--8----8--8--8----8-|-10-10---10-10-10---10-||
6||-0-0---0-0-0---0-|-0-0---0-6-------|-----------------------|-----------------------||

   "In your uncaring life..."
1||-----------------|-----------------|-----------------|-----------------||
2||-----------------|-----------------|-----------------|-----------------||
3||-----------------|-----------------|-----------------|-----------------||
4||-5---------------|-4---------------|-----------------|-----------------||
5||-3---------------|-2-------5-------|-3p2-----3p2-----|-3p2-----3p2-----||
6||-----------------|---------3-------|-1p0-----1p0-----|-1p0-----1p0-----||

                      Not sure
1||-----------------||-----------------|-----------------||
2||-----------------||-----------------|-----------------||
3||-----------------||-----------------|-----------------||
4||-----------------||-----------------|-----------------||
5||-3p2-----3p2-----||-5-------3-------|-5-------3-------||
6||-1p0-0-0-1p0-0-0-||---5-6-5---5-6-3-|---5-6-5---5-6-3-||


1||-----------------|-----------------|-----------------|-----------------||
2||-----------------|-----------------|-----------------|-----------------||
3||-----------------|-----------------|-----------------|-----------------||
4||-----------------|-----------------|-----------------|-----------------||
5||-2---2---2---3-5-|-2---2---2---3-5-|-2---2---2---3-5-|---------3-------||
6||-0---0---0---1-3-|-0---0---0---1-3-|-0---0---0---1-3-|-3-5-6-5---5-6-3-||
Comments