Hatebreed - This Is Now Chords & Tabs

 

This Is Now Chords & Tabs

Hatebreed Chords & Tabs

Version: 5 Type: Tab 0 ratings
1 star 2 stars 3 stars 4 stars 5 stars
comments

This Is Now Tab

HATEBREED
This is Now
Rise of Brutality
Tabbed by: Eren "SaFFaH" Öğrül
Tuning: CGCFAD
Palm-mute=*


[0:00 - 0:30]
--------------------------------------------|
--------------------------------------------|
--------------------------------------------|
--------------------------------------------|
3-0-0---3-4-3-0-0--1-3-1-0-0--3-4-3-0-0-0-0-|
3-0-0---3-4-3-0-0--1-3-1-0-0--3-4-3-0-0-0-0-|
  *           *          *          * * * *

[0:31 - 0:52]
-------------------------------------------|
-------------------------------------------|
-------------------------------------------|
7----6----8----7----7----6----8-----7------|
5----4----8----7----5----4----8-----7------|
-------------------------------------------|

[0:53 - 1:13]
--------------------------------------------|
--------------------------------------------|
--------------------------------------------|
--------------------------------------------|
3-0-0---3-4-3-0-0--1-3-1-0-0--3-4-3-0-0-0-0-|
3-0-0---3-4-3-0-0--1-3-1-0-0--3-4-3-0-0-0-0-|
  *           *          *          * * * *

[1:14 - 1:34]
-------------------------------------------|
-------------------------------------------|
-------------------------------------------|
7----6----8----7----7----6----8-----7------|
5----4----8----7----5----4----8-----7------|
-------------------------------------------|


[1:35 - 1:56]
--------------------------------------------|
--------------------------------------------|
--------------------------------------------|
--------------------------------------------|
3-0-0---3-4-3-0-0--1-3-1-0-0--3-4-3-0-0-0-0-|
3-0-0---3-4-3-0-0--1-3-1-0-0--3-4-3-0-0-0-0-|
  *           *          *          * * * *
[ Tab from: http://www.guitartabs.cc/tabs/h/hatebreed/this_is_now_tab_ver_5.html ]
[1:57 - 2:05]
---------------------------------------------|
---------------------------------------------|
---------------------------------------------|
---------------------------------------------|
-0-----0---------0-----0-----0-----0---0-----|
-0-000-0-000-000-0-000-0-000-0-000-0-0-0-000-|
   ***   *** ***   ***   ***   ***   *   ***

[2:06 - 2:30]
-------------------------------------------------------|
-------------------------------------------------------|
-------------------------------------------------------|
-------------------------------------------------------|
-7-6-3---6-0-----0---------0-----0-----0-----0---0-----|
-7-6-3-0-6-0-000-0-000-000-0-000-0-000-0-000-0-0-0-000-|
       *     ***   *** ***   ***   ***   ***   *   ***

[2:30 - 2:50]
--------------------------           -----------|
--------------------------           -----------|
-7-7h8-5-----7-7h8-4------           -----------|
-------------------------- End with  -----------|
--------------------------           -7-6-3---6-|
--------------------------           -7-6-3-0-6-|
                                            *
[2:51 - 3:11]
-------------------------------------------|
-------------------------------------------|
-------------------------------------------|
7----6----8----7----7----6----8-----7------|
5----4----8----7----5----4----8-----7------|
-------------------------------------------|

[3:12 - 3:33]
--------------------------------------------|
--------------------------------------------|
--------------------------------------------|
--------------------------------------------|
3-0-0---3-4-3-0-0--1-3-1-0-0--3-4-3-0-0-0-0-|
3-0-0---3-4-3-0-0--1-3-1-0-0--3-4-3-0-0-0-0-|
  *           *          *          * * * *

[3:33 - 3:36]
---------------|
---------------|
---------------|
---------------|
---------------|
-0-0-0---0-0-0-|
 * * *   * * *

Excellent song!

jimmcarrey@gmail.com
Comments